The Logic Finger

(/) Slide Up  (\) Slide Down  (h) Hammer On  (p) Pull Off  (b) Bend (r) Release (v) Vibrato

E|--0-----0----0-----0----0--0----0--
B|--0-----5----0-----5----0--0----0--
G|--9--8--6----9--8--6----2--4----9--
D|--9--8--6----9--8--6----2--4----9--
A|--7--6--4----7--6--4----0--2----7--
E|--0-----0----0-----0----0--0----0--



E|--0--0---0------0--0---0--
B|--0--0---0------0--0---9--
G|--9--11--1------9--11--9--
D|--9--11--2------9--11--9--
A|--7--9---2------7--9---7--
E|--0--0---0------0--0---0--



E|--
B|--
G|--
D|--
A|--
E|--
http://www.guitartabcreator.com
Guitar Tab Creator is intended to store guitar tab created through the tool. It currently does not support in-line text editing. Any text you place in here will be lost. If you need to comment on your tab, please use the "Tab Notes" section located below.