xthes to vradi stos skotadi

Eisagogi:
0-12-10-8--7-12-10-8--7-5-3-5---7-0--7-0-7
0----------0----------0---------0-0------- } x2
0----------0----------0---------0-0-------

0-8-7-5--3-8-7-5--3-2-0----0-0-2-3-5-7---
0--------0----------0----4---0-----------
0--------0----------0--------0-----------

0-8-7-5--3-8-7-5--3-2-0----0-0----0---0-
0--------0--------0------4---0--0---0---
0--------0--------0----------0----------

Logia:
0-8-7-5--3-8-7-5--3-2-0---0-0-2-3-5-7---
0--------0--------0-----4---0-----------
0--------0--------0---------0-----------

0-8-7-5--3-8-7-5--3-2-0---0-0----0---0
0--------0--------0-----4---0--0---0--
0--------0--------0---------0--------- kai meta alles 3 fores eisagogi-logia



Χτες το βράδυ στο σκοτάδι
Με στριμώξανε δυο μαύροι
έρευνα για να μου κάνουν
και το μαύρο να μου πάρουν

Είχα κάνει φίνα ζούλα
Που τους έπιασε τρεμούλα
Ρε, ψάξανε να μου το βρούνε,
Μάγκα τώρα θα τον πιούμε.

Αγριέψανε οι μαύροι
Μου τη στήνουν τ'άλλο βράδυ,
Βρε, και με κάνουνε πιαστό
Με τραβούνε στο πλεχτό

Το πρωί στο Διοικητή, αμάν, αμάν,
Και το βράδυ σην Αρχή
Βρέ, κι έτσι μάγκα με δικάζουν,
Και οι μαύροι ησυχάζουν.
Guitar Tab Creator is intended to store guitar tab created through the tool. It currently does not support in-line text editing. Any text you place in here will be lost. If you need to comment on your tab, please use the "Tab Notes" section located below.