H fylaki einai sxoleio

|------4-------------4---------4-4-5p4----------4-5-7-5p4--5-----|
|--5-6---6-5---4-5-6---6-5--------------6-5---5------------------|
|------------0-------------0-0--------------0----------------5-5-|
|----------------------------------------------------------------|

|--7-7-8p7--6----7-7-8p7--6----5---4-5-8-7-|
|------------------------------------------|
|--------------------------------0---------|
|------------------------------------------|

|--4-5-8-7p5--4-5-8-7p5--4-3-0---0---0-|
|------------------------------0---0---|
|--------------------------------------|
|--------------------------------------|


|--9-9-12-10p9--8h9-----12-10-9-8-9-------|
|--------------------10-------------10-10-|
|-----------------------------------------|
|-----------------------------------------|


|--10-12-10-12----8-8-10-8-7-8-8-8-8-7---12-10-8-7-5-|
|----------------------------------------------------|
|----------------------------------------------------|
|----------------------------------------------------|


|--4-5-8-7p5--4---5---8-7p5--4-3-0---0---0-|
|----------------------------------0---0---|
|------------------------------------------|
|------------------------------------------|
Guitar Tab Creator is intended to store guitar tab created through the tool. It currently does not support in-line text editing. Any text you place in here will be lost. If you need to comment on your tab, please use the "Tab Notes" section located below.