aivaliotiko

«ΑΪΒΑΛΙΩΤΙΚΟ»

|----------2-3-4-3-2----2-2---2-3--4-3-2-3-4-4-3-3-2-2---------2-3--4-3-2-4-3---------------------|
|-3-3-3-5------------5------5--------------------------5-5-3-5------------------3-----------------|
|-------------------------------------------------------------------------------------------------|


|---2-3-4-3-2----2-----2-3--4-3-2-3-4-4-3-3-2-2---------2-3---------------------------------------|
|-5-----------5----3-5--------------------------5-5-3-5------6-5-3-5------------------------------|
|-------------------------------------------------------------------------------------------------|


|------------------2-2---2-3--4-3-2-3-4-4-3-3-2-2----------2-3--4-3-2-4-3-------------------------|
|-3-3-2-3-5-5-3-5------5---------------------------5-5-3-5----------------------------------------|
|-------------------------------------------------------------------------------------------------|


|-----------------2-----2-3--4-3-2-3-4-4-3-3-2-2-----------2-3------------------------------------|
|-3-3-2-3-5-5-3-5---3-5---------------------------5-5-3-5--------6-5-3-5--------------------------|
|-------------------------------------------------------------------------------------------------|


|-7-8-10-11-10-8-7----7-8-10-8-7--------7-8-10-11-10-8-7----------------7-8-7---7-8-10------------|
|-8-----------------9------------9-8----8----------------9-8-9-8-7-8-9--------9-------------------|
|-------------------------------------------------------------------------------------------------|


|-7-8-10-11-10-8-7----10-8-7-------------------------------------7-8-10-8-7---7-------------------|
|-8-----------------9--------9-8-7-8--9-8-7-8-9-9-8-8-7-7-5-5---------------9---9-8-7-5-----------|
|-------------------------------------------------------------------------------------------------|


|-10-11-14-15-12-14-15-12-10-8-7-8-10-11-8-10-11-8-7---10-8-7----------------------2-3--4-3-2-4-3-|
|----------------------------------------------------9--------9-8-9-7-8-7-6-5-3-5-----------------|
|-------------------------------------------------------------------------------------------------|


|-10-11-14-15-12-14-15-12-10-8-7-8-10-11-8-10-11-8-7---10-8-7-----------------------3-----------2-|
|----------------------------------------------------9--------9-8-9-7-8-7-6-5--5-3----6-5-3-5-----|
|-------------------------------------------------------------------------------------------------|


|-3-2--------------------------2-3-4-4-3-3-2-2---------2-3--4-3-2-4-3---2-------------------------|
|-----5-3-2-0------0-2-3-5-3-5-----------------5-5-3-5--------------------------------------------|
|-------------5--5--------------------------------------------------------------------------------|


|-3-2-----------------------2-3-4-7-4-7-4-3-3-2-----------3---------------------------------------|
|-----5-3-2-0------0-2-3-5----------------------3-5--5-3-----6-5-3-5------------------------------|
|-------------5--5--------------------------------------------------------------------------------|
Guitar Tab Creator is intended to store guitar tab created through the tool. It currently does not support in-line text editing. Any text you place in here will be lost. If you need to comment on your tab, please use the "Tab Notes" section located below.