Το διχτυ

5-5-5-5--4-4-4-4--2-2-2-1-2-4-5-4-2-0----2-0-----------------0-22222222-2-0---2---------
------------------------------------------------3-2-333333-3---------------3----2-1-3-2-
----------------------------------------------------------------------------------------

5-5-5-5--4-4-5-7---4-4-4-4---2-2-4-5---8-7-5-4--5-4-3---4-2-1----------1-4-2--1--2
--------------------------------------------------------------3-2-3-----------2--2
------------------------------------------------------------------------------1--2

Λόγια:
κ
------2-0-------0-2-----------------5-4-5-4----------4-5-4---------------------------0-2--2-0-----
2-2-2-----3-2-3-----3-2---2-1-3-2-----------7--7-5-7--------7--5-5---2-2-2-3--3-3--3-----------3-2
--------------------------------------------------------------------------------------------------

-----------1-2-4--5-7-9-7-5-4-2-5--4--------------------0-2--2-0-------------1-2-4-5-7-9-7-5-4-5-4--2-
2-1-3-2--2------------------------------2-2-2-3--3-3--3----------3-2--2-1-3-2-2-----------------------
------------------------------------------------------------------------------------------------------

Ρεφραιν:
κι αν κάποτε... κανείς δεν... μονάχος..
4-5-4-5-4-5-777--5-4--------------4-5-4-5-4-5-777--5-4-------------------0-2--2-0---2--
-----------------------7--7-6-8-7------------------------7--5---2-3-3--3----------3----
---------------------------------------------------------------------------------------

κι αν είσαι τυχερός...
-------------1-2-4-5-7-9-7-5-9--4-4------------0-2--2-0----------------
2-1-3-2---2-------------------------- 2-3-3--3----------3-2--2-1-3-2---
-----------------------------------------------------------------------

κι αν είσαι... ....πάλι
--1-2-4-5-7--9-7-5-4-2---
2-------------------------
--------------------------




Κάθε φορά που ανοίγεις δρόμο στη ζωή
μην περιμένεις να σε βρει το μεσονύχτι
έχε τα μάτια σου ανοιχτά βράδυ πρωί
γιατί μπροστά σου πάντα απλώνεται ένα δίχτυ
έχε τα μάτια σου ανοιχτά βράδυ πρωί
γιατί μπροστά σου πάντα απλώνεται ένα δίχτυ

Αν κάποτε στα βρόχια του πιαστείς
κανείς δεν θα μπορέσει να σε βγάλει
μονάχος βρες την άκρη της κλωστής
κι αν είσαι τυχερός ξεκινά πάλι
μονάχος βρες την άκρη της κλωστής
κι αν είσαι τυχερός ξεκινά πάλι

Αυτό το δίχτυ έχει ονόματα βαριά
που είναι γραμμένα σ' επτασφράγιστο κιτάπι
άλλοι το λεν του κάτω κόσμου πονηριά
κι άλλοι το λεν της πρώτης άνοιξης αγάπη

Αν κάποτε στα βρόχια του πιαστείς
κανείς δεν θα μπορέσει να σε βγάλει
μονάχος βρες την άκρη της κλωστής
κι αν είσαι τυχερός ξεκινά πάλι
μονάχος βρες την άκρη της κλωστής
κι αν είσαι τυχερός ξεκινά πάλι
Guitar Tab Creator is intended to store guitar tab created through the tool. It currently does not support in-line text editing. Any text you place in here will be lost. If you need to comment on your tab, please use the "Tab Notes" section located below.