Πέντε μάγκες στον Περαία

10-12-10--8-10--7-10--8-10-8--7-8--5-8--7-8-7-5--7-3--7-5--0-3-3--0-2-3-2--0-3-5-3--0-5-7-5--8-7-5-7-
------------------------------------------------------------------------------------------------------
------------------------------------------------------------------------------------------------------

--0-2-3-5-7-5-3-2-3-0-
------------------------
------------------------

Στίχοι:

-0-2-3-5-7-5-3-2-0--0-2-3-5-7-5-7--5-7-8-7-5-3-2-0-2--2-3-5-3-2----0--5-7-8-5--7-8-10-12-10-8-7-5-3-2-3-
---------------------------------------------------------------------4-----------------------------------------
---------------------------------------------------------------------------------------------------------------

--5-7-8-7-5-3-2-0-2--2-3-5-3-2---0-
---------------------------------4---
-------------------------------------






Πέντε μάγκες στο Περαία - Γιοβάν Τσαούς

Εισαγωγή 10-12-10-8-10-7-10---8-10-8-7-8-5-8----7-8-7-5-7-3-7-5
(3)-3-3--0-2-2--0-3-3--0-5-5--0-8-7-6-7
023-67-32-0--(0)-(1)-(4)-(5)-(0)-0

λόγια Πέντε μάγκες στον Περαί-αι α
0 2 3 5 7 5 3 2 0
Πέρναγαν απ' τον τε-ε-κέ
0 2 3 5 7 8 5 8 7
ένας είπε απ' την παρέ-ε-α
5 7 8 7 5 3 2 0 2
πα' να πιούμε εν΄αργιλέ
2 3 5 3 20(4)0 γεφυρα 00
Μπήκαν μέσα, να φουμάρουν φώναξαν τον τεκετζή
5 7 8 5 7 8 10 12 8 10 12 5 3 2 3
Φτιάξε 'ν' αργιλέ αφρά-ατο με Περσίας τουμπε-εκί
5 7 8 7 5 3 2 0 2 2 3 5 3 2 0 (4)0 γεμισμα 00

και φτου κι απ' την αρχή
καλές πενιές....











Πέντε μάγκες στο Περαία - Γιοβάν Τσαούς
ξαναγυριζω στον Γιοβαν Τσαους γιατι τα τραγουδια του παιζονται με διαφορετικους τροπους
εγω το 5 μαγκες στον Περαια το παιζω ετσι και μου βγαινει πολυ καλο

εισαγωγη
10-12-10-----10-----10 8-10-8 7-8-5-8 7-8-7-5-7-3-7-5
-----------13-----12-----------------------------------------
--------------------------------------------------------------

--3-5-3- 2-3-2- 3-5-3- 5-7-5-8 7-5-7- - 5-7-- -------------------0
3--------5 -------5 --------5-----------------5 7-8 8-7-5 0-2-4-5 -0 0
-------------------------------------------------------------------------------3

λογια
0-2 3-5 7-5 2-3-0 0 0-2 3-5 7-8-5-8 7 7
----------------------0-----------------------0
----------------------0-----------------------0

5-7 8 7-5 3 2-1-2 0 2 2-3 5-3-5-2 2-------------
------------------------0-----------------5-5-4 5-0-5
------------------------0------------------------------

5-7 8-5 7-8 10-12 10-8 7-5 3-2 3 3
---------------------------------------0
---------------------------------------0

5-7 8-7 5-3 2-1-2 2 2-3 5-3-3-2 2-------------
------------------------0-----------------5-5-4 5-0-5
------------------------0-------------------------------


Πέντε μάγκες στον Περαία
πέρναγαν απ' τον τεκέ
ένας είπε απ' την παρέα
πα να πιούμε ένα αργιλέ

Μπήκαν μέσα να φουμάρουν
φώναξαν τον τεκετζή
φτιάξε ένα αργιλέ αφράτο
με Περσίας τουμπεκί

-Γειάσου Αντωνάκη μου λεβέντη!

Δύο τάλαρα τον δίνεις
τρία θα πληρώσουμε
αν η γκλάβα μας γεμίσει
θα σε προτιμήσουμε

Φούμαραν και ήταν τζούρα
φώναξαν τον τεκετζή
δεν κατάλαβαν μαστούρα
ήταν σκέτο τουμπεκί

-Γειάσου Γιοβάν Τσαούς !

Εσύ νόμιζες πως έχεις
τίποτα κορτάκηδες
ούτε πιτσιρίκια έχεις
μήτε και πρεζάκηδες

Πάμε 'κεί στου Κουνελάκη
έχω ζούλα ναργιλέ
πάμε μάγκες να τον πιούμε
να μην πάμε στον τεκέ

Εσύ νόμιζες πως έχεις
τίποτα κορτάκηδες
ούτε πιτσιρίκια έχεις
μήτε και πρεζάκηδες

Αν θα κλείσουν τους τεκέδες
Περαιά Κρεμυδαρού
τότε πια θα κουβαλάω
στην σπηλιά την κουρελού

-Όοοπα!
Guitar Tab Creator is intended to store guitar tab created through the tool. It currently does not support in-line text editing. Any text you place in here will be lost. If you need to comment on your tab, please use the "Tab Notes" section located below.