Ολοι οι ρεμπετες του ντουνια

Ολοι οι ρεμπετες του ντουνια

Εισαγωγη:

Α μερος εισαγωγης

|4|-4-7-5-4-3-4---|6|-7---7-
|0|---------------|0|---0--- Χ3
|0|---------------|0|--------

Το κλεισιμο του α μερους της εισαγωγης

|5|-4-3-2---|5|-4-3-2-0-2--|0|
|0|---------|0|------------|0| Χ1
|0|---------|0|------------|0|

Β μερος εισαγωγης

|12|-12-|8|--8-|7|----------------|7|-7--------------|7|-7-|7|-7
|13|----|10|---|0|-10-8---7-8-10--|0|----10-8-7-8-10-|0|---|0|---
-----------------------------------------------------------------------

|12|-12-|8|--8-|7|----------------|7|-5-3-2-5-3-2-0----|0|
|13|----|10|---|0|-10-8---7-8-10--|0|----------------0-|0|
-------------------------------------------------------|0|

Λογια:

Ολοι ρεμπετες του ντουνια (γεμισμα..............................)
|0|-|3|-7-|5|-3--|2|-3--|0|--------7-6-7-6-------6-7-6-|0|
|0|-|0|---|0|----|0|----|0|-----------------8-7-8------|0|
|0|-|0|---|0|----|0|----|0|----------------------------|0|

Εμενα μ αγαπου-νε (γεμισμα ...............................)
|5|-|5|-7-6-12-|11|-8-|7|----------------6-7-------|0|
|0|-|0|--------|0|----|0|-8-7-5-4-5-7-8-----8-7-8--|0|
|0|-|0|--------|0|----|0|--------------------------|0|

Οπου κ αν μ αντικρ….........(γεμισμα..........................)
|8|-|5|-7-8-12-|11|-8-|7|-----------------------6-7-
|0|-|0|---------|0|---|0|-8-7-5-4-5-7-8-7-8---------
|0|-|0|---------|0|---|0|---------------------------

Θυσια θα γενουνε (φιναλε ........................)
|2|-|3|-7-5-3-2-3-|0|-5-3-7-5-3-2-0---|0|
|0|-|0|-----------|0|---------------0-|0|
|0|-|0|-----------|0|-----------------|0|
Guitar Tab Creator is intended to store guitar tab created through the tool. It currently does not support in-line text editing. Any text you place in here will be lost. If you need to comment on your tab, please use the "Tab Notes" section located below.