Καραντουζένι

--4-0-4-7-6-7-8-7-7-6-5-4-4-6-7-6-7--
-------------------------------------
-------------------------------------


--4----4-7-6-7-8-7-11-8-7-7-5-5-4-4--4--4--
-----5-------------------------------5--5--
-------------------------------------------


--4-4-0-4-7-6-7-8-7-7-6-7-5-4-4-6-7-6-7-4-
------------------------------------------
------------------------------------------


----4---4-7-6-7-8-7-11-8-7-7-5-5-4-4--4--4--
--5---5-------------------------------5--5--
--------------------------------------------


Έπρεπε να 'ρχόσουνα μάγκα μες στο τεκέ μας,
--4---4-7-6-7-8-7-7-6-5-4-4-6-7-6-7-
----5-------------------------------
------------------------------------


και να 'κουγες το μπαγλαμά και τις διπλοπενιές μας.
-4---4---4-7-6-7-8-7-7-6-5-4-4--4--4--
-------5------------------------5--5--
--------------------------------------


--4---4-7-6-7-8-7-11-8-7-7-5-5-4-4-7-6-8-7--
----5---------------------------------------
--------------------------------------------


------0---7-6-7-8-7-7-8-7-5-5-7-5-4-4--4--4--
--9-9---9------------------------------5--5--
---------------------------------------------


--11-12-11---------------7-6-5-4-4-5-7-6-7-4-
-----------13-12-11-12-9---------------------
---------------------------------------------


--4---4-7-6-7-8-7-7-6-5-4-4--4--4--
----5------------------------5--5--
-----------------------------------


--12-11-12-14-12-11--------------------------------7-6-8-7--
--------------------13-12-11-12-11-12-11-12-10-9-9----------
------------------------------------------------------------


--12-11-12-14-12-11------------------------7-5-5-4-4----4----4--
--------------------13-12-11-12-11-12-10-9----------------------
----------------------------------------------------------------




Καραντουζένι


Στίχοι: Μάρκος Βαμβακάρης, Φράγκος
Μουσική: Μάρκος Βαμβακάρης, Φράγκος
Πρώτη εκτέλεση: Μάρκος Βαμβακάρης, Φράγκος



Έπρεπε να 'ρχόσουνα μάγκα
μες στο τεκέ μας
και να 'κουγες το μπαγλαμά
και τις διπλοπενιές μας.

ν'άκους να φχαριστηθείς
ν 'ακούσεις και λιγάκι
θέλεις δε θες να σηκωθείς
βόλτα για ζεϊμπεκάκι.

Ν' ακούσεις και το αραμπιέν
και το καραντουζένι
και σέ λιγάκι θα 'λεγες
ο αργιλές να γένει.

Θα σου φύγουν οι καημοί
να σπάσεις νταλκαδάκι
απ' τις πενιές που θ' άκουγες
από το μπουζουκάκι.
Guitar Tab Creator is intended to store guitar tab created through the tool. It currently does not support in-line text editing. Any text you place in here will be lost. If you need to comment on your tab, please use the "Tab Notes" section located below.