Βαθειά στη θάλασσα θα πέσω

|-------------------7-------7-------------7---8-7-10-8-11-10-14-11-10-9-10-|
|-3-5-3-6-5-8-7-9-8---9-8-7-8-----8-7-9-8---9------------------------------|
|--------------------------10--10------------------------------------------|



|-10-11-10-8-8-10-8-7-7-8-7-----7-----------------------------2-3-2------0-|
|---------------------------9-9---9-8-7-8-9-9-8-8-7-7-5-5-3-5----5-3-5-0-0-|
|------------------------------------------------------------------------0-|



|-12-12-12--10--12-12-12-7-8-7-7-8-9-10-10-10--10--5-7-5-3-5-7-8-7-7-5-3-|
|------------------------------------------------------------------------|
|------------------------------------------------------------------------|



|-------7-8-10-8-10-7----------------7-8-10-10-8-10-7---------|
|8-8-8-9-------------9-8-7-8--8-8-8-9-----------------9-8-7-8-|
|-------------------------------------------------------------|



|--------7-8-10-8-10-7-8-7-7-------------------2-3-2----|
|8-8-8-9------------------8-9-9-8-8-7-7-5-5-3-5---5-3-5-|
|-------------------------------------------------------|



Βαθειά στη θάλασσα θα πέσω
να με σκεπάσει το νερό
τη δύστυχη ζωή που κάνω
να την αντέξω δεν μπορώ

Θα ξεχαστώ από τους φίλους
θα με ξεχάσουν συγγενείς
και θα χαθώ σ' αυτά τα βάθη
που δε θα τα πάτησε κανείς

Βαθειά στη θάλασσα θα πέσω
να με σκεπάσει το νερό
τα κύματα να μ' αγκαλιάσουν
το φως να μην το ξαναδώ
Guitar Tab Creator is intended to store guitar tab created through the tool. It currently does not support in-line text editing. Any text you place in here will be lost. If you need to comment on your tab, please use the "Tab Notes" section located below.