Christ, I'm Nothing Special (Standard Tuning; Capo 5th)

(/) Slide Up  (\) Slide Down  (h) Hammer On  (p) Pull Off  (b) Bend (r) Release (v) Vibrato


E|--0--0--0--3--
B|--1--1--1--1--
G|--2--0--0--0--
D|--2--3--2--0--
A|--0--3--3--2--
E|-----------3--



E|--1--1--1--1--0--0--0--0--1--1--1--1--1--0--
B|--3--3--3--3--1--1--1--1--3--3--3--3--3--3--
G|--2--2--2--2--2--2--2--2--2--2--2--2--0--0--
D|--0--0--0--0--2--2--2--2--0--0--0--0--0--0--
A|--------------0--0--0--0--------------2--2--
E|--------------------------------------3--3--



E|--0--3--1--0--0--
B|--1--1--3--1--0--
G|--0--0--2--2--1--
D|--2--0--0--2--2--
A|--3--2-----0--2--
E|--3--3--------0--



E|--0--0--0--0--1--1--1--1--3--3--3--3--5--5--5--
B|--5--5--5--5--3--3--3--3--3--3--3--3--5--5--5--
G|--3--3--3--3--2--2--2--2--4--4--4--4--6--6--6--
D|--5--5--5--5--0--0--0--0--5--5--5--5--7--7--7--
A|--5--5--5--5--------------5--5--5--5--7--7--7--
E|--------------------------3--3--3--3--5--5--5--



E|--0--0--0--0--1--1--1--1--3--3--3--0--
B|--5--5--5--5--3--3--3--3--3--3--3--2--
G|--3--3--3--3--2--2--2--2--4--4--4--2--
D|--5--5--5--5--0--0--0--0--5--5--5--2--
A|--5--5--5--5--------------5--5--5--0--
E|--------------------------3--3--3-----



E|--0--3--1--0--0--
B|--1--1--3--1--0--
G|--0--0--2--2--1--
D|--2--0--0--2--2--
A|--3--2-----0--2--
E|--3--3--------0--



E|--0--0--0--3--
B|--1--1--1--1--
G|--2--0--0--0--
D|--2--3--2--0--
A|--0--3--3--2--
E|-----------3--
http://www.guitartabcreator.com
Guitar Tab Creator is intended to store guitar tab created through the tool. It currently does not support in-line text editing. Any text you place in here will be lost. If you need to comment on your tab, please use the "Tab Notes" section located below.