WE ARE THE WORLD GUITAR INSTRUMENTAL

(/) Slide Up  (\) Slide Down  (h) Hammer On  (p) Pull Off  (b) Bend (r) Release (v) Vibrato
E|----------------------------------------------------------------------------
B|----------------------------------------------------------------------------
G|-------------------------4---------------------------------------4----------
D|--4/6r4--6--2h4/6--7--6-----4--4/6--4/6--2-----2-----4-----2--4-----4/6-----
A|--------------------------------------------4-----4-----4-------------------
E|----------------------------------------------------------------------------



E|------------------------------------------------------------------------------
B|------------------------------------------------------------------------------
G|-------4--4h6r4---------4/6--4h6--4--2\1--2p1v--------------2-----2--2/4--4v--
D|--4/6------------6--6v--------------------------4--2v--2/4-----4--------------
A|------------------------------------------------------------------------------
E|------------------------------------------------------------------------------



E|----------------------------------------------------------------------------------------
B|----------------------------------------------------------------------------------------
G|---------------------------4--4h6-------------------------------------------4-----------
D|--4/6r4--6r4--2v--4--6--4----------4/6--2v-----4/6--2v-----2-----4-----2h4-----4/6v-----
A|--------------------------------------------4-----------4-----4-----4-------------------
E|----------------------------------------------------------------------------------------



E|------------------------------------------------------------------------------
B|------------------------------------------------------------------------------
G|-------4--4h6r4---------4/6--4h6--4--2\1--2p1v--------------2-----2--2/4--4v--
D|--4/6------------6--6v--------------------------4--2v--2/4-----4--------------
A|------------------------------------------------------------------------------
E|------------------------------------------------------------------------------



E|--------------------------------------------------------------------------------------------------
B|--------------------------------------------------------------------------------------------------
G|--11/13r11\9-------11/13r11\9----------11/13r11--9--------------------9--8--9--11-----------------
D|--------------11v--------------11--9v---------------11--9--11--9--11---------------11/13--11--9v--
A|--------------------------------------------------------------------------------------------------
E|--------------------------------------------------------------------------------------------------



E|-------------------------------------------------------------------------------------------------
B|---------12--12/14\9--9--9v--12/14--12h14--12--10\9--10p9v---------------------------------------
G|--11/13-----------------------------------------------------11--9v------9------9--9/11--11p9-----
D|--------------------------------------------------------------------11-----11--------------------
A|-------------------------------------------------------------------------------------------------
E|-------------------------------------------------------------------------------------------------



E|-----------
B|-----------
G|--9\8--9v--
D|-----------
A|-----------
E|-----------



E|-------------------------------------------------------------------------------------------------
B|--12--12-----------------------9--10--10v--12-----------------------9--10v--12-------------------
G|----------9--11b13--11b13--11------------------9--11b13--11b13--11--------------9--11b13--11b13--
D|-------------------------------------------------------------------------------------------------
A|-------------------------------------------------------------------------------------------------
E|-------------------------------------------------------------------------------------------------



E|---------------
B|---------------
G|--11b13r11--9--
D|---------------
A|---------------
E|---------------
http://www.guitartabcreator.com
Guitar Tab Creator is intended to store guitar tab created through the tool. It currently does not support in-line text editing. Any text you place in here will be lost. If you need to comment on your tab, please use the "Tab Notes" section located below.