GUITAR EXERCISE 3

(/) Slide Up  (\) Slide Down  (h) Hammer On  (p) Pull Off  (b) Bend (r) Release (v) Vibrato


E|-------------12--12------------------------12--12-----------------------12--12---------------
B|---------11----------11----------------11----------11---------------11----------11-----------
G|-----10------------------10--------10------------------10--------9------------------9--------
D|--9--------------------------9--8--------------------------8--8------------------------8-----
A|---------------------------------------------------------------------------------------------
E|---------------------------------------------------------------------------------------------



E|------------12--12----------------------11--11------------
B|--------10----------10--------------10----------10--------
G|-----9------------------9--------9------------------9-----
D|--8------------------------8--8------------------------8--
A|----------------------------------------------------------
E|----------------------------------------------------------



E|------------11--11----------------------11--11---------------------11--11--------------
B|--------10----------10--------------10----------10--------------9----------9-----------
G|-----9------------------9--------8------------------8--------8----------------8--------
D|--7------------------------7--7------------------------7--7----------------------7-----
A|---------------------------------------------------------------------------------------
E|---------------------------------------------------------------------------------------



E|-----------10--10-----------
B|--------9----------9--------
G|-----8----------------8-----
D|--7----------------------7--
A|----------------------------
E|----------------------------
http://www.guitartabcreator.com
Guitar Tab Creator is intended to store guitar tab created through the tool. It currently does not support in-line text editing. Any text you place in here will be lost. If you need to comment on your tab, please use the "Tab Notes" section located below.