GUITAR EXERCISE 2

(/) Slide Up  (\) Slide Down  (h) Hammer On  (p) Pull Off  (b) Bend (r) Release (v) Vibrato


E|-----------------------------------------------------------
B|-----------------------------------------------------------
G|-----------------------------------------------------------
D|----------------------------------------1h2r1h2r1h2r1h2r---
A|---------------------1h2r1h2r1h2r1h2r1---------------------
E|--1h2r1h2r1h2r1h2r1----------------------------------------



E|----------------------------------------1h2r1h2r1h2r1h2r1--
B|---------------------1h2r1h2r1h2r1h2r1---------------------
G|--1h2r1h2r1h2r1h2r1----------------------------------------
D|-----------------------------------------------------------
A|-----------------------------------------------------------
E|-----------------------------------------------------------
http://www.guitartabcreator.com
Guitar Tab Creator is intended to store guitar tab created through the tool. It currently does not support in-line text editing. Any text you place in here will be lost. If you need to comment on your tab, please use the "Tab Notes" section located below.