GUITAR EXERCISE 1

(/) Slide Up  (\) Slide Down  (h) Hammer On  (p) Pull Off  (b) Bend (r) Release (v) Vibrato


E|--------------------------------------------------------------1--2--3--4--
B|--------------------------------------------------1--2--3--4--------------
G|--------------------------------------1--2--3--4--------------------------
D|--------------------------1--2--3--4--------------------------------------
A|--------------1--2--3--4--------------------------------------------------
E|--1--2--3--4--------------------------------------------------------------



E|--5--4--3--2--------------------------------------------------------------
B|--------------5--4--3--2--------------------------------------------------
G|--------------------------5--4--3--2--------------------------------------
D|--------------------------------------5--4--3--2--------------------------
A|--------------------------------------------------5--4--3--2--------------
E|--------------------------------------------------------------5--4--3--2--



E|--------------------------------------------------------------3--4--5--6--
B|--------------------------------------------------3--4--5--6--------------
G|--------------------------------------3--4--5--6--------------------------
D|--------------------------3--4--5--6--------------------------------------
A|--------------3--4--5--6--------------------------------------------------
E|--3--4--5--6--------------------------------------------------------------



E|--7--6--5--4--------------------------------------------------------------
B|--------------7--6--5--4--------------------------------------------------
G|--------------------------7--6--5--4--------------------------------------
D|--------------------------------------7--6--5--4--------------------------
A|--------------------------------------------------7--6--5--4--------------
E|--------------------------------------------------------------7--6--5--4--



E|--------------------------------------------------------------5--6--7--8--
B|--------------------------------------------------5--6--7--8--------------
G|--------------------------------------5--6--7--8--------------------------
D|--------------------------5--6--7--8--------------------------------------
A|--------------5--6--7--8--------------------------------------------------
E|--5--6--7--8--------------------------------------------------------------



E|--9--8--7--6--------------------------------------------------------------
B|--------------9--8--7--6--------------------------------------------------
G|--------------------------9--8--7--6--------------------------------------
D|--------------------------------------9--8--7--6--------------------------
A|--------------------------------------------------9--8--7--6--------------
E|--------------------------------------------------------------9--8--7--6--



E|-------------------------------------------------------------------7--8--9--10--
B|------------------------------------------------------7--8--9--10---------------
G|-----------------------------------------7--8--9--10----------------------------
D|----------------------------7--8--9--10-----------------------------------------
A|---------------7--8--9--10------------------------------------------------------
E|--7--8--9--10-------------------------------------------------------------------



E|------------------------------------------------------------------------8--9--10--11--
B|----------------------------------------------------------8--9--10--11----------------
G|--------------------------------------------8--9--10--11------------------------------
D|------------------------------8--9--10--11--------------------------------------------
A|----------------8--9--10--11----------------------------------------------------------
E|--8--9--10--11------------------------------------------------------------------------



E|--12--11--10--9-----------------------------------------------------------------------------
B|-----------------12--11--10--9--------------------------------------------------------------
G|--------------------------------12--11--10--9-----------------------------------------------
D|-----------------------------------------------12--11--10--9--------------------------------
A|--------------------------------------------------------------12--11--10--9-----------------
E|-----------------------------------------------------------------------------12--11--10--9--
http://www.guitartabcreator.com
Guitar Tab Creator is intended to store guitar tab created through the tool. It currently does not support in-line text editing. Any text you place in here will be lost. If you need to comment on your tab, please use the "Tab Notes" section located below.