Zombie Apocalypse Part II

(/) Slide Up  (\) Slide Down  (h) Hammer On  (p) Pull Off  (b) Bend (r) Release (v) Vibrato


E|-----------------|-----------------|-----------------|-----------------|-
B|-------7---------|-------7---------|-------7---------|-------7---------|-
G|-----8---8-------|-----8---8-------|-----8---8-------|-----8---8-------|-
D|---8-------8---8-|---8-------8---8-|---8-------8---8-|---8-------8---8-|-
A|-6-----------6---|-6-----------6---|-6-----------6---|-6-----------6---|-
E|-----------------|-----------------|-----------------|-----------------|-



E|---------0-------|---------0-------|---------0-------|---------0-------|-
B|-------5---5-----|-------5---5-----|-------5---5-----|-------5---5-----|-
G|-----4-------4---|-----4-------4---|-----4-------4---|-----4-------4---|-
D|---5-----------5-|---5-----------5-|---5-----------5-|---5-----------5-|-
A|-5---------------|-5---------------|-5---------------|-5---------------|-
E|-----------------|-----------------|-----------------|-----------------|-



E|---------------------------------|-------------------------|---
B|---------------------------------|-------------------------|---
G|---------------------------------|-------------------------|---
D|---------------------------------|-------------------------|---
A|---------------------------------|-5-----4-----3-----4-----|---
E|-0-0-0-0-0-0-0-0-0-0-0-0-0-0-0-0-|-3-0-0-2-0-0-1-0-0-2-0-0-|---



E|-----------------|-----------------|-----------------|-----------------|-
B|-----------------|-----------------|-----------------|-----------------|-
G|-----------------|-----------------|-----------------|-----------------|-
D|-----------------|-----------------|-----------------|-----------------|-
A|-----------------|-----------------|-----------------|-----------------|-
E|-5h7-7-7-7-7-7-7-|-5h7-7-7-7-7-7-7-|-5h7-7-7-7-7-7-7-|-8p7-7-7-3-3-5-5-|-



E|-----------------|-----------------|-----------------|-----------------|-
B|-----------------|-----------------|-----------------|-----------------|-
G|-----------------|-----------------|-----------------|-----------------|-
D|-----------------|-----------------|-----------------|-----------------|-
A|-----------------|-----------------|-----------------|-----------------|-
E|-5h7-7-7-7-7-7-7-|-5h7-7-7-7-7-7-7-|-5h7-7-7-7-7-7-7-|-8p7-7-7-3-3-5-5-|-



E|-------------------------|-------------------------|-----------------|-----------------|-
B|-------------------------|-------------------------|-----------------|-----------------|-
G|-------------------------|-------------------------|-----------------|-----------------|-
D|-4-----5-----4-----5-----|-4-----5-----4-----5-----|-----------------|-----------------|-
A|-4-----5-----4-----5-----|-4-----5-----4-----5-----|-----------------|-----------------|-
E|-2-2-2-3-3-3-2-2-2-3-3-3-|-2-2-2-3-3-3-2-2-2-3-3-3-|-0-0-0-0-0-0-0-0-|-0-0-0-0-0-0-0-0-|-



E|-----------------------|-----------------------|-----------------------|-------------------|-
B|-----------------------|-----------------------|-----------------------|-------------------|-
G|-----------------------|-----------------------|-------------------7-7-|-----------7-7-9-9-|-
D|-------------------7-7-|-------------------7-7-|-------------------7-7-|-----------7-7-9-9-|-
A|-2-----------------7-7-|-2-----------------7-7-|-2-----------------5-5-|-2---------5-5-7-7-|-
E|-0-0-0-0-0-0-0-0-0-5-5-|-0-0-0-0-0-0-0-0-0-5-5-|-0-0-0-0-0-0-0-0-0-----|-0-0-0-0-0---------|-



E|---------------------------------|-------------------------|-
B|---------------------------------|-------------------------|-
G|---------------------------------|-------------------------|-
D|---------------------------------|-------------------------|-
A|---------------------------------|-5-----4-----3-----4-----|-
E|-0-0-0-0-0-0-0-0-0-0-0-0-0-0-0-0-|-3-0-0-2-0-0-1-0-0-2-0-0-|-
http://www.guitartabcreator.com
Guitar Tab Creator is intended to store guitar tab created through the tool. It currently does not support in-line text editing. Any text you place in here will be lost. If you need to comment on your tab, please use the "Tab Notes" section located below.