Your Life

(/) Slide Up  (\) Slide Down  (h) Hammer On  (p) Pull Off  (b) Bend (r) Release (v) Vibrato


E|-----------------|-0h2p0-----3-------|-----------------|-----------------|-
B|-------------3---|-------3---------3-|---3---0-----0---|-----0-------0---|-
G|-------0---2---2-|---------2-----0---|-0---2-----2-----|---2-------2-----|-
D|-----2---0-------|-------------------|-----------------|-------0-1-------|-
A|---2-------------|-------------3-----|---------0-----0-|-2-------------2-|-
E|-0---------------|-------------------|-----------------|-----------------|-



E|-----------------|-----------------|-----------------|-----------------|-
B|-----------------|-----------------|-----------------|-----------------|-
G|-----0-------0---|-----0-----------|-----0-------0---|-----0-----------|-
D|---7---7---7---7-|---5---5---5---4-|---7---7---7---7-|---9---9---5---4-|-
A|-5-------5-------|-3-------3---2---|-5-------5-------|-7-------3---2---|-
E|-----------------|-----------------|-----------------|-----------------|-



E|-----------------|-----------------|---
B|-----------------|-----------------|---
G|---2-------3-----|-----------------|---
D|-----3-------4---|-----------------|---
A|-------3-------4-|---5---6---7---8-|---
E|-1-------2-------|-3---4---5---6---|---



E|-----------------|-------3---------|-----3---2-------|-----0---0---0---|-
B|-------0-----1-0-|-----0---0-------|-------3---3-----|-------2---------|-
G|-----2-----------|---0-------0-----|---2-------------|-----------2-----|-
D|---2-------2-----|-----------------|-0-----------0-0-|---2-------------|-
A|-0-------0-------|-------------2---|-----------------|-0-------------2-|-
E|-----------------|-3-------------3-|-----------------|-----------------|-



E|-----------------|-------3---------|-----3---2-------|-----0---0---0---|-
B|-------0-----1-0-|-----0---0-------|-------3---3-----|-------0---------|-
G|-----2-----------|---0-------0-----|---2-------------|-----------0-----|-
D|---2-------2-----|-----------------|-0-----------0-0-|-----------------|-
A|-0-------0-------|-------------2---|-----------------|---2-----------2-|-
E|-----------------|-3-------------3-|-----------------|-0---------------|-



E|-
B|-
G|-
D|-
A|-
E|-
http://www.guitartabcreator.com
Guitar Tab Creator is intended to store guitar tab created through the tool. It currently does not support in-line text editing. Any text you place in here will be lost. If you need to comment on your tab, please use the "Tab Notes" section located below.