As Time Passes

(/) Slide Up  (\) Slide Down  (h) Hammer On  (p) Pull Off  (b) Bend (r) Release (v) Vibrato


E|-----3-----3-----3-----3-|-----3-----3-----3-----3-|-----3-----3-----3-----3-|---
B|---3-----3-----3-----3---|---4-----4-----4-----4---|---3-----3-----3-----3---|---
G|-3-----3-----3-----3-----|-3-----3-----3-----3-----|-3-----3-----3-----3-----|---
D|-------------------------|-------------------------|-------------------------|---
A|-------------------------|-------------------------|-------------------------|---
E|-------------------------|-------------------------|-------------------------|---



E|-----1-----1-----2-----2-|-----3-----3-----3-----3-|-----3-----3-----3-----3-|-
B|---1-----1-----2-----2---|---3-----3-----3-----3---|---4-----4-----4-----4---|-
G|-1-----1-----2-----2-----|-3-----3-----3-----3-----|-3-----3-----3-----3-----|-
D|-------------------------|-------------------------|-------------------------|-
A|-------------------------|-------------------------|-------------------------|-
E|-------------------------|-------------------------|-------------------------|-



E|-----3-----3-----3-----3-|-----1-----1-----2-----2-|-
B|---3-----3-----3-----3---|---1-----1-----2-----2---|-
G|-3-----3-----3-----3-----|-1-----1-----2-----2-----|-
D|-------------------------|-------------------------|-
A|-------------------------|-------------------------|-
E|-------------------------|-------------------------|-



E|-3--3-----3--3-----|-3--3------3--3-----|-3--3-----3--3-----|-1--1------2--2-----|-
B|-3----3---3----3---|-4----4----4----4---|-3----3---3----3---|-1----1----2----2---|-
G|-3------3-3------3-|-3------3--3------3-|-3------3-3------3-|-1------1--2------2-|-
D|-5--------5--------|-5---------5--------|-5--------5--------|-3---------4--------|-
A|-------------------|--------------------|-------------------|--------------------|-
E|-------------------|--------------------|-------------------|--------------------|-



E|-----3-----3-----3-----3-|-----3-----3-----3-----3-|-----3-----3-----3-----3-|-
B|---3-----3-----3-----3---|---4-----4-----4-----4---|---3-----3-----3-----3---|-
G|-3-----3-----3-----3-----|-3-----3-----3-----3-----|-3-----3-----3-----3-----|-
D|-5-----5-----5-----5-----|-5-----5-----5-----5-----|-5-----5-----5-----5-----|-
A|-------------------------|-------------------------|-------------------------|-
E|-------------------------|-------------------------|-------------------------|-



E|-----1-----1-----2-----2-|--------|-
B|---1-----1-----2-----2---|--------|-
G|-1-----1-----2-----2-----|--------|-
D|-3-----3-----4-----4-----|-9----8\|-
A|-------------------------|-7----6-|-
E|-------------------------|-0------|-



E|-------------------|-----------------------|-
B|-------------------|-----------------------|-
G|-3/5-5h6p5-3\1/3-3-|-3/5-5h6p5-3/1-3-3h4p3-|-
D|-------------------|-----------------------|-
A|-------------------|-----------------------|-
E|-------------------|-----------------------|-



E|-------------------------|------------------------|-----------------------|---
B|-------------------------|------------------------|-----------------------|---
G|-15h17-15h17-15h17-15h17-|--18--17p15-13/15-14h15-|-13/15-15-13h15--13/15-|---
D|-------------------------|------------------------|-----------------------|---
A|-------------------------|------------------------|-----------------------|---
E|-------------------------|------------------------|-----------------------|---



E|-------------------------|-------------------------|-
B|----15-------------------|-------------------------|-
G|-17----17p15----15-------|-------------------------|-
D|-------------17----17p15-|----15-------------------|-
A|-------------------------|-17----17p15----15-------|-
E|-------------------------|-------------17----17p15-|-



E|-------------------------|------------------------|-----------------------|-
B|-------------------------|------------------------|-----------------------|-
G|-17h19-17h19-17h19-17h19-|--20--19p17-15/17-16h17-|-15/17-17-15h17--15/17-|-
D|-------------------------|------------------------|-----------------------|-
A|-------------------------|------------------------|-----------------------|-
E|-------------------------|------------------------|-----------------------|-



E|-------------------------|-------------------------|-
B|----17-------------------|-------------------------|-
G|-19----19p17----17-------|-------------------------|-
D|-------------19----19p17-|----17-------------------|-
A|-------------------------|-19----19p17----17-------|-
E|-------------------------|-------------19----19p17-|-



E|---------------|-------------------------------|-------------------------|---------------|-
B|---------------|-------------------------------|-------------------------|---------------|-
G|-15--15-15/17--|-17-17-17h18-17p15-13h15-14h15-|-15-15-17-15-15-17h18p17-|-17-17p12/17---|-
D|---------------|-------------------------------|-------------------------|---------------|-
A|---------------|-------------------------------|-------------------------|---------------|-
E|---------------|-------------------------------|-------------------------|---------------|-



E|-----------------------|------------------------|------12-------13-|-------14-------15-|-
B|-----------------------|------------------------|-12p9----13p10----|-14p11----15p12----|-
G|-----------------------|------------------------|------------------|-------------------|-
D|-18-18p15-18--18p15-18-|--18p15-18--18p15-18-18-|------------------|-------------------|-
A|-----------------------|------------------------|------------------|-------------------|-
E|-----------------------|------------------------|------------------|-------------------|-



E|-15h16-15h16-15h16-15h16-|-------------------------|-15p12-17p12-15p12-16p12-|-
B|-------------------------|-15p12-17p12-15p12-16p12-|-------------------------|-
G|-------------------------|-------------------------|-------------------------|-
D|-------------------------|-------------------------|-------------------------|-
A|-------------------------|-------------------------|-------------------------|-
E|-------------------------|-------------------------|-------------------------|-



E|-------12-------13-------12-------13-|-12----|-11----|-12h15-12h17-12h15-12h17-|-
B|----13-------13-------13-------13----|-13----|-12----|-------------------------|-
G|-12-------12-------12-------12-------|-12----|-11----|-------------------------|-
D|-------------------------------------|-------|-------|-------------------------|-
A|-------------------------------------|-------|-------|-------------------------|-
E|-------------------------------------|-------|-------|-------------------------|-



E|-12h15-12h17-12h15-12h17-|-19p17p15-19p17p14-19p17p15-19p17p14-|-
B|-------------------------|-------------------------------------|-
G|-------------------------|-------------------------------------|-
D|-------------------------|-------------------------------------|-
A|-------------------------|-------------------------------------|-
E|-------------------------|-------------------------------------|-



E|-19p17p15-19p17p15-19p17p14-19p17p14-19p17p15-19p17p15-19p17p14-19p17p14-|-
B|-------------------------------------------------------------------------|-
G|-------------------------------------------------------------------------|-
D|-------------------------------------------------------------------------|-
A|-------------------------------------------------------------------------|-
E|-------------------------------------------------------------------------|-



E|-19p17p15-19p17p14-19p17p15-19p17p14-|-
B|-------------------------------------|-
G|-------------------------------------|-
D|-------------------------------------|-
A|-------------------------------------|-
E|-------------------------------------|-



E|-19p17p15-19p17p15-19p17p14-19p17p14-19p17p15-19p17p15-19p17p14-19p17p14-|-
B|-------------------------------------------------------------------------|-
G|-------------------------------------------------------------------------|-
D|-------------------------------------------------------------------------|-
A|-------------------------------------------------------------------------|-
E|-------------------------------------------------------------------------|-



E|-17p16h17-18p17h18-19p18h19-20p19h20-|-20h21-20h21-20h21-20h21-|-
B|-------------------------------------|-------------------------|-
G|-------------------------------------|-------------------------|-
D|-------------------------------------|-------------------------|-
A|-------------------------------------|-------------------------|-
E|-------------------------------------|-------------------------|-



E|----10h12p10----10h11p10----10h12p10----10h11p10-|-21b21b21b21-|---
B|-12----------12----------12----------12----------|-------------|---
G|-------------------------------------------------|-------------|---
D|-------------------------------------------------|-------------|---
A|-------------------------------------------------|-------------|---
E|-------------------------------------------------|-------------|---



E|-6p5p4-6p5p4-5p4p3-5p4p3-|-4p3p2-4p3p2-3p2p1-2p1p0-|-
B|-------------------------|-------------------------|-
G|-------------------------|-------------------------|-
D|-------------------------|-------------------------|-
A|-------------------------|-------------------------|-
E|-------------------------|-------------------------|-



E|-------------|-----------|-------------|-----------|-
B|-------------|-----------|-------------|-----------|-
G|-------------|-----------|-------------|-----------|-
D|-------------|-----------|-------------|-----------|-
A|-------3-3-3-|-----3-3-3-|-------3-3-3-|-----3-3-3-|-
E|-0--0--1-1-1-|-0-0-1-1-1-|-0--0--1-1-1-|-0-0-1-1-1-|-



E|-----3-----3-----3-----3-|-----3-----3-----3-----3-|-----3-----3-----3-----3-|-
B|---3-----3-----3-----3---|---4-----4-----4-----4---|---3-----3-----3-----3---|-
G|-3-----3-----3-----3-----|-3-----3-----3-----3-----|-3-----3-----3-----3-----|-
D|-------------------------|-------------------------|-------------------------|-
A|-------------------------|-------------------------|-------------------------|-
E|-------------------------|-------------------------|-------------------------|-



E|-----0-----0-----1-----2-|-----3-----3-----3-----3-|-----3-----3-----3-----3-|-
B|---0-----0-----1-----2---|---3-----3-----3-----3---|---4-----4-----4-----4---|-
G|-0-----0-----1-----2-----|-3-----3-----3-----3-----|-3-----3-----3-----3-----|-
D|-------------------------|-------------------------|-------------------------|-
A|-------------------------|-------------------------|-------------------------|-
E|-------------------------|-------------------------|-------------------------|-



E|-----3-----3-----3-----3-|-----0-----0-----1-----2-|------|-
B|---3-----3-----3-----3---|---0-----0-----1-----2---|------|-
G|-3-----3-----3-----3-----|-0-----0-----1-----2-----|------|-
D|-------------------------|-------------------------|------|-
A|-------------------------|-------------------------|----2-|-
E|-------------------------|-------------------------|----0-|-
http://www.guitartabcreator.com
Guitar Tab Creator is intended to store guitar tab created through the tool. It currently does not support in-line text editing. Any text you place in here will be lost. If you need to comment on your tab, please use the "Tab Notes" section located below.