Soul Harvest


E|-------5-----5---|-------5-----5---|-------6-----6---|-------7-----7---|-------5-----5---|
B|-----6---6-----6-|-----6---6-----6-|-----7---7-----7-|-----8---8-----8-|-----6---6-----6-|
G|---7-------7-----|---7-------7-----|---8-------8-----|---9-------9-----|---7-------7-----|
D|-----------------|-----------------|-----------------|-----------------|-----------------|
A|-5---------------|-5---------------|-6---------------|-7---------------|-5---------------|
E|-----------------|-----------------|-----------------|-----------------|-----------------|



E|-------5-----5---|-------5-----5---|-------5-----5---|-------5-----5---|-------5-----5---|
B|-----6---6-----6-|-----6---6-----6-|-----6---6-----6-|-----6---6-----6-|-----6---6-----6-|
G|---7-------7-----|---7-------7-----|---7-------7-----|---7-------7-----|---7-------7-----|
D|-----------------|-----------------|-----------------|-----------------|-----------------|
A|-5---------------|-5---------------|-5---------------|-5---------------|-5---------------|
E|-----------------|-----------------|-----------------|-----------------|-----------------|



E|-------6-----6---|-------7-----7---|-------5-----5---|-------5-----5---|-------5-----5---|
B|-----7---7-----7-|-----8---8-----8-|-----6---6-----6-|-----6---6-----6-|-----6---6-----6-|
G|---8-------8-----|---9-------9-----|---7-------7-----|---7-------7-----|---7-------7-----|
D|-----------------|-----------------|-----------------|-----------------|-----------------|
A|-6---------------|-7---------------|-5---------------|-5---------------|-5---------------|
E|-----------------|-----------------|-----------------|-----------------|-----------------|



E|-------5-----5---|-------5-----5---|-------5-----5---|-------5-----5---|-------5-----5----|
B|-----6---6-----6-|-----6---6-----6-|-----6---6-----6-|-----6---6-----6-|-----6---6-----6--|
G|---7-------7-----|---7-------7-----|---7-------7-----|---7-------7-----|---7-------7------|
D|-----------------|-----------------|-----------------|-----------------|------------------|
A|-5---------------|-5---------------|-5---------------|-5---------------|-5----------------|
E|-----------------|-----------------|-----------------|-----------------|------------------|



E|-----------------|-----------------|-----------------|-----------------|-----------------|
B|-----------0-1-0-|-----------0-1-0-|-----------0-3-0-|-----------0-1-0-|-----------0-1-0-|
G|-------0-2-------|-------0-2-------|-------0-2-------|-------0-2-------|-------0-2-------|
D|-----2-----------|-----2-----------|-----2-----------|-----2-----------|-----2-----------|
A|---2-------------|---2-------------|---2-------------|---2-------------|---2-------------|
E|-0---------------|-0---------------|-0---------------|-0---------------|-0---------------|



E|-----------------|-----------------|-----------------|-----------------|------------------|
B|-----------0-1-0-|-----------0-3-0-|-----------0-1-0-|-----------0-1-0-|-----------0-1-0--|
G|-------0-2-------|-------0-2-------|-------0-2-------|-------0-2-------|-------0-2--------|
D|-----2-----------|-----2-----------|-----2-----------|-----2-----------|-----2------------|
A|---2-------------|---2-------------|---2-------------|---2-------------|---2--------------|
E|-0---------------|-0---------------|-0---------------|-0---------------|-0----------------|



E|-----------------|-----------------|-----------------|-----------------|-----------------|
B|-----------------|-----------------|-----------------|-----------------|-----------------|
G|-----------------|-----------------|-----------------|-----------------|-----------------|
D|-5---6---7---8---|-5---6---7---8---|-5---6---7---8---|-5---6---7---8---|-5---6---7---8---|
A|---5---5---5---5-|---5---5---5---5-|---5---5---5---5-|---5---5---5---5-|---5---5---5---5-|
E|-----------------|-----------------|-----------------|-----------------|-----------------|



E|-----------------|-----------------|-----------------|-----------------|-----------------|
B|-----------------|-----------------|-----------------|-----------------|-----------------|
G|-----------------|-----------------|-----------------|-----------------|-----------------|
D|-5---6---7---8---|-5---6---7---8---|-5---6---7---8---|-5---6---7---8---|-5---6---7---8---|
A|---5---5---5---5-|---5---5---5---5-|---5---5---5---5-|---5---5---5---5-|---5---5---5---5-|
E|-----------------|-----------------|-----------------|-----------------|-----------------|



E|-----------------|-----------------|--------------|---------------------------------|
B|-----------------|-----------------|--------------|---------------------------------|
G|-----------------|-----------------|--------------|---------------------------------|
D|-5---6---7---8---|-5---6---7---8---|------5---4---|---------------------------------|
A|---5---5---5---5-|---5---5---5---5-|-2-2----5---5-|---------------------------------|
E|-----------------|-----------------|-0-0----------|-0-3-5-3-0-3-5-3-0-3-5-3-0-3-5-7-|



E|---------------------------------|---------------------------------|
B|---------------------------------|---------------------------------|
G|---------------------------------|---------------------------------|
D|---------------------------------|---------------------------------|
A|---------------------------------|---------------------------------|
E|-0-3-5-3-0-3-5-3-0-3-5-3-0-3-5-7-|-0-3-5-3-0-3-5-3-0-3-5-3-0-3-5-7-|



E|---------------------------------|---------------------------------|
B|---------------------------------|---------------------------------|
G|---------------------------------|---------------------------------|
D|---------------------------------|---------------------------------|
A|---------------------------------|---------------------------------|
E|-0-3-5-3-0-3-5-3-0-3-5-3-0-3-5-7-|-0-3-5-3-0-3-5-3-0-3-5-3-0-3-5-7-|



E|---------------------------------|---------------------------------|
B|---------------------------------|---------------------------------|
G|---------------------------------|---------------------------------|
D|---------------------------------|---------------------------------|
A|---------------------------------|---------------------------------|
E|-0-3-5-3-0-3-5-3-0-3-5-3-0-3-5-7-|-0-3-5-3-0-3-5-3-0-3-5-3-0-3-5-7-|



E|---------------------------------|-------------------|-------------------|
B|---------------------------------|-------------------|-------------------|
G|---------------------------------|-------------------|-------------------|
D|---------------------------------|-------------------|-------------------|
A|---------------------------------|-2----7-5-2----7-9-|-2----7-5-2----7-9-|
E|-0-3-5-3-0-3-5-3-0-3-5-3-0-3-5-7-|-0--0-----0--0-----|-0--0-----0--0-----|



E|-------------------|--------------------|
B|-------------------|--------------------|
G|-------------------|--------------------|
D|-------------------|--------------------|
A|-2----7-5-2----7-9-|-2----7-5-2----7-10-|
E|-0--0-----0--0-----|-0--0-----0--0------|



E|--------------------------------|
B|--------------------------------|
G|--------------------------------|
D|--------------------------------|
A|--------------------------------|
E|00000000000000000000000000000000|
++++++++++++++++++++++++++++++++


E|--------------------------------|
B|--------------------------------|
G|--------------------------------|
D|--------------------------------|
A|--------------------------------|
E|00000000000000000000000000000000|
++++++++++++++++++++++++++++++++


E|-----------------|-----------------|-----------------|-----------------|
B|-----------------|-----------------|-----------------|-----------------|
G|-------7---9-----|-------7---9-----|-------7---7-----|-------5---4-----|
D|-----7-------9---|-----7-------9---|-----7-------7---|-----5-------2---|
A|---5-----------7-|---5-----------7-|---5-----------5-|---3-----------2-|
E|-0-------0-------|-0-------0-------|-0-------0-------|-0-------0-------|



E|-----------------|-----------------|-----------------|-----------------|
B|-----------------|-----------------|-----------------|-----------------|
G|-------7---9-----|-------7---9-----|-------7---7-----|-------5---4-----|
D|-----7-------9---|-----7-------9---|-----7-------7---|-----5-------2---|
A|---5-----------7-|---5-----------7-|---5-----------5-|---3-----------2-|
E|-0-------0-------|-0-------0-------|-0-------0-------|-0-------0-------|



E|---------------------------------|---------------------------------|
B|---------------------------------|---------------------------------|
G|---------------------------------|---------------------------------|
D|---------------------------------|---------------------------------|
A|---------------------------------|---------------------------------|
E|-3-0-2-0-3-0-2-0-3-0-2-0-3-0-2-0-|-3-0-2-0-3-0-2-0-3-0-2-0-3-0-2-0-|



E|---------------------------------|-------------------------------|
B|---------------------------------|-------------------------------|
G|---------------------------------|-------------------------------|
D|---------------------------------|-------------------------------|
A|---------------------------------|-------------------------------|
E|-3-0-2-0-3-0-2-0-3-0-2-0-3-0-2-0-|-3-0-0-3-0-2-0-3-0-2-0-3-0-2-0-|



E|-----------------------------------------------------------------------------------------------|
B|----15-17-15----15-17-15----15-17-15----15-17-15----15-17-15----15-17-15----15-17-15----15-17--|
G|-17----------17----------17----------17----------17----------17----------17----------17--------|
D|-----------------------------------------------------------------------------------------------|
A|-----------------------------------------------------------------------------------------------|
E|-----------------------------------------------------------------------------------------------|



E|-----------------------------------------------------------------------------------------------|
B|----16-18-16----16-18-16----16-18-16----16-18-16----15-17-15----15-17-15----15-17-15----15-17--|
G|-18----------18----------18----------18----------17----------17----------17----------17--------|
D|-----------------------------------------------------------------------------------------------|
A|-----------------------------------------------------------------------------------------------|
E|-----------------------------------------------------------------------------------------------|



E|-----------------------------------------------------------------------------------------------|
B|----17-19-17----17-19-17----16-18-16----16-18-16----14-16-14----14-16-14----15-17-15----15-15--|
G|-19----------19----------18----------18----------16----------16----------17----------17--------|
D|-----------------------------------------------------------------------------------------------|
A|-----------------------------------------------------------------------------------------------|
E|-----------------------------------------------------------------------------------------------|



E|-----------------------------------------------------------------------------------------------|
B|----12-13-12----12-13-12----12-13-12----12-13-12----12-14-12----12-14-12----12-14-12----12-14--|
G|-13----------13----------13----------13----------14----------14----------14----------14--------|
D|-----------------------------------------------------------------------------------------------|
A|-----------------------------------------------------------------------------------------------|
E|-----------------------------------------------------------------------------------------------|



E|-----------------------------------------------------------------------------------------------|
B|----13-15-13----13-15-13----13-15-13----13-15-13----14-16-14----14-16-14----14-16-14----14-16--|
G|-15----------15----------15----------15----------16----------16----------16----------16--------|
D|-----------------------------------------------------------------------------------------------|
A|-----------------------------------------------------------------------------------------------|
E|-----------------------------------------------------------------------------------------------|



E|----------------------------------------------------------------------------------------------|
B|----15-17-15----15-17-17-15----15-17-15----15-17-15----16-18-16----16-18-16----16-18-16-------|
G|-17----------17-------------17----------17----------18----------18----------18----------18----|
D|----------------------------------------------------------------------------------------------|
A|----------------------------------------------------------------------------------------------|
E|----------------------------------------------------------------------------------------------|



E|-20-20-20-16-20-20-20-16-20-20-20-16-20-20-20-16-|-21-21-21-17-21-21-21-17-21-21-21-17-21---|
B|-------------------------------------------------|------------------------------------------|
G|-------------------------------------------------|------------------------------------------|
D|-------------------------------------------------|------------------------------------------|
A|-------------------------------------------------|------------------------------------------|
E|-------------------------------------------------|------------------------------------------|



E|-20-20-20-16-20-20-20-16-20-20-20-16-20-20-20-16-|-18-18-18-14-18-18-18-14-19-19-19-17-19--|
B|-------------------------------------------------|-----------------------------------------|
G|-------------------------------------------------|-----------------------------------------|
D|-------------------------------------------------|-----------------------------------------|
A|-------------------------------------------------|-----------------------------------------|
E|-------------------------------------------------|-----------------------------------------|



E|----14-16-14----14-16-14----14-16-14----14-16-14----14-16-14----14-16-14----14-16-14----14--|
B|-16----------16----------16----------16----------16----------16----------16----------16-----|
G|--------------------------------------------------------------------------------------------|
D|--------------------------------------------------------------------------------------------|
A|--------------------------------------------------------------------------------------------|
E|--------------------------------------------------------------------------------------------|



E|---------0-------|---------0-------|---------0-------|---------0-------|
B|-------0---0-----|-------0---0-----|-------0---0-----|-------0---0-----|
G|-----7-------7---|-----7-------7---|-----7-------7---|-----7-------7---|
D|---9-----------9-|---9-----------9-|---9-----------9-|---9-----------9-|
A|-9---------------|-9---------------|-0---------------|-0---------------|
E|-----------------|-----------------|-----------------|-----------------|



E|---------0-------|---------0-------|---------0-0-------|---------0-------|
B|-------0---0-----|-------0---0-----|-------0-----0-----|-------0---0-----|
G|-----7-------7---|-----7-------7---|-----7---------7---|-----7-------7---|
D|---9-----------9-|---9-----------9-|---9-------------9-|---9-----------9-|
A|-9---------------|-9---------------|-0-----------------|-0---------------|
E|-----------------|-----------------|-------------------|-----------------|



E|-------------------------|-------------------------|-------------------------|
B|-------------------------|-------------------------|-------------------------|
G|-9-9---9-----9-----9-----|-9-9---9-----9-----9-----|-7-7---7-----7-----7-----|
D|-9---9---9-----9-----9---|-9---9---9-----9-----9---|-7---7---7-----7-----7---|
A|-7---------7-----7-----7-|-7---------7-----7-----7-|-5---------5-----5-----5-|
E|-------------------------|-------------------------|-------------------------|


E|-------------------------|---------------------------------|-----------------|
B|-------------------------|---------------------------------|-----------------|
G|-5-5---5-----4-4---4-----|---------------------------------|-----------------|
D|-5---5---5---4---4---4---|---------------------------------|-----------------|
A|-3---------3-2---------2-|---------------------------------|-----------------|
E|-------------------------|-0-3-0-3-0-5-0-5-0-3-0-3-0-5-0-5-|-0-0-0-0-0-0-0-0-|



E|-------------------|-------------------|-------------------|--------------------|
B|-------------------|-------------------|-------------------|--------------------|
G|-------------------|-------------------|-------------------|--------------------|
D|-------------------|-------------------|-------------------|--------------------|
A|-2----7-5-2----7-9-|-2----7-5-2----7-9-|-2----7-5-2----7-9-|-2----7-5-2----7-10-|
E|-0--0-----0--0-----|-0--0-----0--0-----|-0--0-----0--0-----|-0--0-----0--0------|



E|-------5-----5---|-------5-----5---|-------6-----6---|-------7-----7---||
B|-----6---6-----6-|-----6---6-----6-|-----7---7-----7-|-----8---8-----8-||
G|---7-------7-----|---7-------7-----|---8-------8-----|---9-------9-----||
D|-----------------|-----------------|-----------------|-----------------||repeat and fade out
A|-5---------------|-5---------------|-6---------------|-7---------------||
E|-----------------|-----------------|-----------------|-----------------||
Guitar Tab Creator is intended to store guitar tab created through the tool. It currently does not support in-line text editing. Any text you place in here will be lost. If you need to comment on your tab, please use the "Tab Notes" section located below.