The Runaway Train solo

(/) Slide Up  (\) Slide Down  (h) Hammer On  (p) Pull Off  (b) Bend (r) Release (v) Vibrato
E|-----------------|-------------------------|---------------
B|-----------------|-------------------------|---------------
G|-4p2p0---4p2p0---|-4p2p0h4p2p0h4p2p0h4p2p0h|-4p2p0h4p2p0h--
D|---------------0-|-------------------------|---------------
A|-----------------|-------------------------|---------------
E|-------0---------|-------------------------|---------------



E|-------------|---------------------|-----------------------|-------|----------------
B|-------------|---------------------|-----------12-12h15p12-|-12-12-|-15p12-12h15-12-
G|-4p2p0h4p2p0-|-4h5-4h5-4\2h4-2-2-2-|-2h4-2h4-2-------------|-------|----------------
D|-------------|---------------------|-----------------------|-------|----------------
A|-------------|---------------------|-----------------------|-------|----------------
E|-------------|---------------------|-----------------------|-------|----------------



E|----------------------|-------------------------------------|---------------------------------------
B|-12-15-12-12h15p12-12-|-15p12-12h15p12-12h15p12-12h15p12-12-|-15h17-15h17-15\12-15p12-15p12-15p12\--
G|----------------------|-------------------------------------|---------------------------------------
D|----------------------|-------------------------------------|---------------------------------------
A|----------------------|-------------------------------------|---------------------------------------
E|----------------------|-------------------------------------|---------------------------------------



E|--------|-----|-------------------|-------------------|----------------|--------------------|-------
B|-10-8-7-|-7/9-|-10-9-10-9-10-9--9-|-10-9-10-9-10-9--9-|-8-7-8-7-8-7--7-|-9--8-9--8-10-11-12-|-------
G|--------|-----|-11-9-11-9-11-9--9-|-11-9-11-9-11-9--9-|-9-7-9-7-9-7--7-|-10-8-10-8-11-12-13-|-------
D|--------|-----|-9--9-9--9-9--9--9-|-9--9-9--9-9--9--9-|-7-7-7-7-7-7--7-|-8--8-8--8-9--10-11-|-12b13-
A|--------|-----|-------------------|-------------------|----------------|--------------------|-------
E|--------|-----|-------------------|-------------------|----------------|--------------------|-------



E|----------------------------------------------------------------|--------------------------------------------|-----------
B|----------------------------------------------------------------|--12h15p12-------------12h15p12-------------|-----------
G|---------------------------------------------------------12h14--|----------------12h14----------------12h14--|-----------
D|--12b13--12b13--12b13--12b13--12b13--12b14--10\8--7--14---------|------------14-------------------14---------|-----------
A|----------------------------------------------------------------|--------------------------------------------|-----------
E|----------------------------------------------------------------|--------------------------------------------|-----------



E|----------|-------------------------------------|----|-0-|-
B|----------|-12h15p12----------12h15p12----------|-12-|-1-|-
G|----12h14-|-------------12h14-------------12h14-|-12-|-1-|-
D|-14-------|----------14----------------14-------|----|-2-|-
A|----------|-------------------------------------|----|---|-
E|----------|-------------------------------------|----|---|-
http://www.guitartabcreator.com
Guitar Tab Creator is intended to store guitar tab created through the tool. It currently does not support in-line text editing. Any text you place in here will be lost. If you need to comment on your tab, please use the "Tab Notes" section located below.