The River of Life

(/) Slide Up  (\) Slide Down  (h) Hammer On  (p) Pull Off  (b) Bend (r) Release (v) Vibrato


E|-------------------|---------------------|---------------------|-----------------|-
B|-------------------|---------------------|---------------------|-----------------|-
G|-19v--17-15v-17-19-|-20v--19-17-15-14-15-|-17v--15-14-10-14-14-|-12v--14-12v-12v-|-
D|-------------------|---------------------|---------------------|-----------------|-
A|-------------------|---------------------|---------------------|-----------------|-
E|-------------------|---------------------|---------------------|-----------------|-



E|-------------------|---------------------|---------------------|-----------------|-
B|-------------------|---------------------|---------------------|-----------------|-
G|-19v--17-15v-17-19-|-20v--19-17-15-14-15-|-17v--15-14-10-14-14-|-12v--14-12v-12v-|-
D|-------------------|---------------------|---------------------|-----------------|-
A|-------------------|---------------------|---------------------|-----------------|-
E|-------------------|---------------------|---------------------|-----------------|-



E|---------|-----------|-------|-------------|-
B|---------|-----------|-------|-------------|-
G|-7-------|-8---------|-3---7-|-5-----5-5-5-|-
D|-7---5-7-|-8---8-7-5-|-3---7-|-5---5-5-5-5-|-
A|-5---3-5-|-6---6-5-3-|-1---5-|-3---3---3-3-|-
E|---------|-----------|-------|-------------|-



E|------|---------|---------|-
B|------|---------|---------|-
G|------|---------|---------|-
D|-3----|-4-------|---------|-
A|-3----|-4---4-4-|---------|-
E|-1----|-2---2-2-|---------|-



E|----------------------|------------------------|------------------------|-----------------|---
B|----------------------|------------------------|------------------------|-----------------|---
G|-19v--17-15v-17-17-19-|-20v--19-19-17-15-14-15-|-17v--15-15-14-10-14-14-|-12v--14-14-12v--|---
D|----------------------|------------------------|------------------------|-----------------|---
A|----------------------|------------------------|------------------------|-----------------|---
E|----------------------|------------------------|------------------------|-----------------|---



E|-
B|-
G|-
D|-
A|-
E|-
http://www.guitartabcreator.com
Guitar Tab Creator is intended to store guitar tab created through the tool. It currently does not support in-line text editing. Any text you place in here will be lost. If you need to comment on your tab, please use the "Tab Notes" section located below.