The Reaper's Revenge

(/) Slide Up  (\) Slide Down  (h) Hammer On  (p) Pull Off  (b) Bend (r) Release (v) Vibrato
E|-------------------------|-------------------------|-------------------------|------------------|-
B|-------------------------|-------------------------|-------------------------|------------------|-
G|-------------------------|-------------------------|-------------------------|------------------|-
D|----21----21----21----21-|----19----19----19----19-|----21----21----21----21-|----17----17------|-
A|-19----19----19----19----|-17----17----17----17----|-19----19----19----19----|-15----15----14---|-
E|-------------------------|-------------------------|-------------------------|------------------|-



E|-----------------|-----------------|-----------------|---------------|-
B|-----------------|-----------------|-----------------|---------------|-
G|-------9---9-----|-------9---9-----|-------7---7-----|-------5-------|-
D|-----9-------9---|-----9-------9---|-----7-------7---|-----5-----4---|-
A|---7-----------7-|---7-----------7-|---5-----------5-|---3-----2-----|-
E|-0-------0-------|-0-------0-------|-0-------0-------|-0-------------|-



E|--------------------------------|--------------------------------|-
B|--------------------------------|--------------------------------|-
G|--------------------------------|--------------------------------|-
D|-------2--------0---0---0---0---|-------2--------0---0---0---0---|-
A|----2-----2-------2---2---2---2-|----2-----2-------2---2---2---1-|-
E|-0-----------0------------------|-0-----------0------------------|-



E|-------------------------|-------------------------|-
B|-------------------------|-------------------------|-
G|-------------------------|-------------------------|-
D|-2--8--7--6--2--8-7-6--2-|-2--8--7--6--2--8-7-6--2-|-
A|-2--8--7--6--2--8-7-6--2-|-2--8--7--6--2--8-7-6--2-|-
E|-0--6--5--4--0--6-5-4--0-|-0--6--5--4--0--6-5-4--0-|-



E|-----------------|-----------------|-----------------|---------------|-
B|-----------------|-----------------|-----------------|---------------|-
G|-------9---9-----|-------9---9-----|-------7---7-----|-------5-------|-
D|-----9-------9---|-----9-------9---|-----7-------7---|-----5-----4---|-
A|---7-----------7-|---7-----------7-|---5-----------5-|---3-----2-----|-
E|-0-------0-------|-0-------0-------|-0-------0-------|-0-------------|-



E|--------------------------------|--------------------------------|-
B|--------------------------------|--------------------------------|-
G|--------------------------------|--------------------------------|-
D|-------2--------0---0---0---0---|-------2--------0---0---0---0---|-
A|----2-----2-------2---2---2---2-|----2-----2-------2---2---2---1-|-
E|-0-----------0------------------|-0-----------0------------------|-



E|-------------------------|-------------------------|-
B|-------------------------|-------------------------|-
G|-------------------------|-------------------------|-
D|-2--8--7--6--2--8-7-6--2-|-2--8--7--6--2--8-7-6--2-|-
A|-2--8--7--6--2--8-7-6--2-|-2--8--7--6--2--8-7-6--2-|-
E|-0--6--5--4--0--6-5-4--0-|-0--6--5--4--0--6-5-4--0-|-



E|-----------------|-----------------|-----------------|---------------|-
B|-----------------|-----------------|-----------------|---------------|-
G|-------9---9-----|-------9---9-----|-------7---7-----|-------5-------|-
D|-----9-------9---|-----9-------9---|-----7-------7---|-----5-----4---|-
A|---7-----------7-|---7-----------7-|---5-----------5-|---3-----2-----|-
E|-0-------0-------|-0-------0-------|-0-------0-------|-0-------------|-



E|--------------------------------|--------------------------------|-
B|--------------------------------|--------------------------------|-
G|--------------------------------|--------------------------------|-
D|-------2--------0---0---0---0---|-------2--------0---0---0---0---|-
A|----2-----2-------2---2---2---2-|----2-----2-------2---2---2---1-|-
E|-0-----------0------------------|-0-----------0------------------|-



E|-19p15p0-19p15p0-19p15p0-19p15p0-20p15p0-20p15p0-20p15p0-20p15p0-|-
B|-----------------------------------------------------------------|-
G|-----------------------------------------------------------------|-
D|-----------------------------------------------------------------|-
A|-----------------------------------------------------------------|-
E|-----------------------------------------------------------------|-



E|-17p15p0-17p15p0-17p15p0-17p15p0-18p15p0-18p15p0-19p15p0-21p15p0-|-
B|-----------------------------------------------------------------|-
G|-----------------------------------------------------------------|-
D|-----------------------------------------------------------------|-
A|-----------------------------------------------------------------|-
E|-----------------------------------------------------------------|-



E|-19p15p0-19p15p0-19p15p0-19p15p0-18p15p0-18p15p0-18p15p0-18p15p0-|-
B|-----------------------------------------------------------------|-
G|-----------------------------------------------------------------|-
D|-----------------------------------------------------------------|-
A|-----------------------------------------------------------------|-
E|-----------------------------------------------------------------|-



E|-16p15p0-16p15p0-16p15p0-16p15p0-16p15p0-17p15p0-18p15p0-19p15p0-|-
B|-----------------------------------------------------------------|-
G|-----------------------------------------------------------------|-
D|-----------------------------------------------------------------|-
A|-----------------------------------------------------------------|-
E|-----------------------------------------------------------------|-



E|-20b21-20b21-20b21-20b21-18b19-18b19-18b19-18b19-16b17-16b17-16-|---
B|----------------------------------------------------------------|---
G|----------------------------------------------------------------|---
D|----------------------------------------------------------------|---
A|----------------------------------------------------------------|---
E|----------------------------------------------------------------|---



E|----15h19p15----15h19p15----15h19p15----15h19p15----15h18p15----15h18p15----15h18p15--|-
B|-19----------19----------19----------19----------19----------19----------19-----------|-
G|--------------------------------------------------------------------------------------|-
D|--------------------------------------------------------------------------------------|-
A|--------------------------------------------------------------------------------------|-
E|--------------------------------------------------------------------------------------|-



E|----14h16p14----14h16p14----14h16p14----14h16p14----15h17p15----15h17p15----15h17p15--|-
B|-16----------16----------16----------16----------17----------17----------17-----------|-
G|--------------------------------------------------------------------------------------|-
D|--------------------------------------------------------------------------------------|-
A|--------------------------------------------------------------------------------------|-
E|--------------------------------------------------------------------------------------|-



E|----16h18p16----16h18p16----16h18p16----16h18p16----17h19p17----17h19p17----17h19p17--|-
B|-18----------18----------18----------18----------19----------19----------19-----------|-
G|--------------------------------------------------------------------------------------|-
D|--------------------------------------------------------------------------------------|-
A|--------------------------------------------------------------------------------------|-
E|--------------------------------------------------------------------------------------|-



E|-20b21-20b21-20b21-20b21-20b21-20b21-20b21-20b21-20b21-20b21b21-20b21-20b21-20b21-20b21-20b21-|-
B|----------------------------------------------------------------------------------------------|-
G|----------------------------------------------------------------------------------------------|-
D|----------------------------------------------------------------------------------------------|-
A|----------------------------------------------------------------------------------------------|-
E|----------------------------------------------------------------------------------------------|-



E|-----------------------------------------------------------------|-
B|-----------------------------------------------------------------|-
G|-----------------------------------------------------------------|-
D|-----------------------------------------------------------------|-
A|-------3-------3-------3-------3-------3-------3-------3-------3-|-
E|-0-0-0-1-0-0-0-1-0-0-0-1-0-0-0-1-0-0-0-1-0-0-0-1-0-0-0-1-0-0-0-1-|-



E|---------------------------------|---------------------------------|-
B|---------------------------------|---------------------------------|-
G|---------------------------------|---------------------------------|-
D|---------------------------------|---------------------------------|-
A|---------------------------------|---------------------------------|-
E|-0-0-0-0-0-0-0-0-0-0-0-0-0-0-0-0-|-0-0-0-0-0-0-0-0-0-0-0-0-0-0-0-0-|-



E|-----------------|-----------------|-----------------|---------------|-
B|-----------------|-----------------|-----------------|---------------|-
G|-------9---9-----|-------9---9-----|-------7---7-----|-------5-------|-
D|-----9-------9---|-----9-------9---|-----7-------7---|-----5-----4---|-
A|---7-----------7-|---7-----------7-|---5-----------5-|---3-----2-----|-
E|-0-------0-------|-0-------0-------|-0-------0-------|-0-------------|-



E|---------------------------------|---------------------------------|-
B|---------------------------------|---------------------------------|-
G|---------------------------------|---------------------------------|-
D|-5-5-4-4-2-2-2-2-5-5-4-4-2-2-2-2-|-5-5-4-4-2-2-2-2-5-5-4-4-2-2-2-2-|-
A|-5-5-4-4-2-2-2-2-5-5-4-4-2-2-2-2-|-5-5-4-4-2-2-2-2-5-5-4-4-2-2-2-2-|-
E|-3-3-2-2-0-0-0-0-3-3-2-2-0-0-0-0-|-3-3-2-2-0-0-0-0-3-3-2-2-0-0-0-0-|-



E|--------------------------------|--------------------------------|-
B|--------------------------------|--------------------------------|-
G|--------------------------------|--------------------------------|-
D|-------2--------0---0---0---0---|-------2--------0---0---0---0---|-
A|----2-----2-------2---2---2---2-|----2-----2-------2---2---2---1-|-
E|-0-----------0------------------|-0-----------0------------------|-



E|-----------------0------|-----------------------
B|--------------0---------|-----------------------
G|-----------0------------|-----------------------
D|--------2---------------|-----------------------
A|-----2------------------|-----------------------
E|--0---------------------|-----------------------
http://www.guitartabcreator.com
Guitar Tab Creator is intended to store guitar tab created through the tool. It currently does not support in-line text editing. Any text you place in here will be lost. If you need to comment on your tab, please use the "Tab Notes" section located below.