Planet Death Solo




E|----12-15-12----12-15-12----12-15-12----12-15-12-|-17~~~~~~~~~~~~~~~~~~|
B|-15----------15----------15----------15----------|---------------------|
G|-------------------------------------------------|---------------------|
D|-------------------------------------------------|---------------------|
A|-------------------------------------------------|---------------------|
E|-------------------------------------------------|---------------------|



E|-19-17-------------------------------------------|---------------------|
B|-------19-17-------------------------------------|---------------------|
G|-------------19-17-------------------------------|---------------------|
D|-------------------19-17-------------------------|---------------------|
A|-------------------------19-17----------17-17-17-|-19~~~~~~~~~~~~~~~~~~|
E|-------------------------------19-17-19----------|---------------------|



E|-16-15----------15----16-------------15----------|---------------23-23-|
B|-------16-15-------------------15----------------|---------------------|
G|-------------------------16-15----16-------------|---------------------|
D|-------------------------------------------------|---------------------|
A|----------------------------------------16-15----|-15~~~~~~~~~~~~~~~~~~|
E|----------------------------------------------16-|---------------------|



E|-24-23-22-23-22-21-22-21-20-21-20-19-20-19-18-19-18-17-18-17-16-17-16-15-|
B|-------------------------------------------------------------------------|
G|-------------------------------------------------------------------------|
D|-------------------------------------------------------------------------|
A|-------------------------------------------------------------------------|
E|-------------------------------------------------------------------------|



E|-16-15-14-15-14-13-14-13-12-13-12-11-12-11-10-11-10-9-10-9-8-9-8-7-|
B|-------------------------------------------------------------------|
G|-------------------------------------------------------------------|
D|-------------------------------------------------------------------|
A|-------------------------------------------------------------------|
E|-------------------------------------------------------------------|



E|-18-17----17-20-17-19-17-18-17----17-20-17-19-17-18-17----17-20-17-19-17-|
B|-------19----------------------19----------------------19----------------|
G|-------------------------------------------------------------------------|
D|-------------------------------------------------------------------------|
A|-------------------------------------------------------------------------|
E|-------------------------------------------------------------------------|



E|-19-18----18-21-18-20-18-19-18----18-21-18-19-18-19-18----18-21-18-20-18-|
B|-------20----------------------20----------------------20----------------|
G|-------------------------------------------------------------------------|
D|-------------------------------------------------------------------------|
A|-------------------------------------------------------------------------|
E|-------------------------------------------------------------------------|



E|-------------------------------------------------------------------------|
B|-4-4-4-4-4-4-4-4-6-6-6-6-6-6-6-6-9-9-9-9-9-9-9-9-14-14-14-14-14-14-14-14-|
G|-------------------------------------------------------------------------|
D|-------------------------------------------------------------------------|
A|-------------------------------------------------------------------------|
E|-------------------------------------------------------------------------|



E|--------------------------------------------------------------------------------------|
B|-17-17-17-17-17-17-17-17-13-13-13-13-13-13-13-13-19-19-19-19-19-19-19-19-15-15-21-21--|
G|--------------------------------------------------------------------------------------|
D|--------------------------------------------------------------------------------------|
A|--------------------------------------------------------------------------------------|
E|--------------------------------------------------------------------------------------|



E|-24-24-24-24-24-24-24-24-24-24-24-24-24-24-24-24-24/\/\/\/\/\/\/\/\/\/\/\/\/\/\/\/\/\/\|
B|---------------------------------------------------------------------------------------|
G|---------------------------------------------------------------------------------------|
D|---------------------------------------------------------------------------------------|
A|---------------------------------------------------------------------------------------|
E|---------------------------------------------------------------------------------------|
Guitar Tab Creator is intended to store guitar tab created through the tool. It currently does not support in-line text editing. Any text you place in here will be lost. If you need to comment on your tab, please use the "Tab Notes" section located below.