Not Cool Kid solo/wah

(/) Slide Up  (\) Slide Down  (h) Hammer On  (p) Pull Off  (b) Bend (r) Release (v) Vibrato


E|-10h12-10h12-10h12-10h12-10h12-10h12-10h12-10h12-|-10h12-10h12-10h12-10h12-13p12p10--|-8p4h8p4-
B|-------------------------------------------------|-----------------------------------|---------
G|-------------------------------------------------|-----------------------------------|---------
D|-------------------------------------------------|-----------------------------------|---------
A|-------------------------------------------------|-----------------------------------|---------
E|-------------------------------------------------|-----------------------------------|---------



E|-8--6-4h6p4-|---5-----------------------------|-17-15-19-15-17p15-19p15-17-15-19-15-17p15-17h19-|-
B|------------|-7---7p5---5---------------------|-------------------------------------------------|-
G|------------|---------7---7p5---5-------------|-------------------------------------------------|-
D|------------|-----------------7---7p5---5-----|-------------------------------------------------|-
A|------------|-------------------------7---7p5-|-------------------------------------------------|-
E|------------|---------------------------------|-------------------------------------------------|-



E|-20--19p17--15h17-|-19--p17-19p15-|-------------------------------------------------|-------------
B|------------------|---------------|----10-------------------------------------------|----10---8---
G|------------------|---------------|-12----12p10----10-------------------------------|-10----8-----
D|------------------|---------------|-------------12----12p10----10-------------------|-------------
A|------------------|---------------|-------------------------12----12p10----10-------|-------------
E|------------------|---------------|-------------------------------------12----12p10-|-------------



E|--------|------------------|--------------|---------12----|-11-10-9-8------7-|-
B|-----10-|----10---8-----10-|---8---6----8-|---6---4-12----|-11-10-9-8----7---|-
G|-10-----|-10----8---10-----|-8---6---8----|-6---4---12----|-11-10-9-8--7-----|-
D|--------|------------------|--------------|---------------|------------------|-
A|--------|------------------|--------------|---------------|------------------|-
E|--------|------------------|--------------|---------------|------------------|-
http://www.guitartabcreator.com
Guitar Tab Creator is intended to store guitar tab created through the tool. It currently does not support in-line text editing. Any text you place in here will be lost. If you need to comment on your tab, please use the "Tab Notes" section located below.