Living Today

(/) Slide Up  (\) Slide Down  (h) Hammer On  (p) Pull Off  (b) Bend (r) Release (v) Vibrato

E|-------0-----0---|-------0-----0---|-------0-----3---|-----0-------0---|---------0---3---|-
B|-----------------|-------------1---|-----3---3-------|-----------------|-------------3---|-
G|---------2---0-2-|-----0-----------|---2-------2---0-|-----2---------4-|---------0-2-----|-
D|-----2-----2-----|---2-----2-----2-|-0-----0---------|---2-------------|-----2-0---------|-
A|---2-------------|-3-----3---3-----|-------------3---|-0-----2---2-----|---2-----------2-|-
E|-0-----0---------|-----------------|-----------------|---------0---0---|-0-----0---------|-



E|---0-------------|---------------0-|---------0-------|-----8---3-------|---0-----------5-|-
B|-----3---0---1---|---------1---3---|---3---------3---|-------------1---|-------1---------|-
G|-2---2---4-2---4-|-----0-------2---|-----2-----------|-----5-----2---4-|-----2---4-------|-
D|-----------------|---2-5-----------|-0---------2-----|---------2-------|-------------4---|-
A|-0-----2---------|-3-----2---2-----|-------2---------|---2---2---------|-----------2---5-|-
E|-----------------|-----------------|---------0-----2-|-0---------------|-0---------------|-



E|-----0-------0---|-------------0---|-----0-----------|---0---------5---|-0---------------|-
B|---------3-------|-----3---1-------|-------------3---|-----2-----------|-----5-------3-3-|-
G|-----0-----2-----|---2-------4-----|-----------0---5-|-------3-------9-|---4---6---------|-
D|-------2---------|-2-------------1-|---2-----2-------|---2-------------|-----------------|-
A|---2-----------2-|-----3-------2---|-3---2-----------|-0-------2-------|---------2-----2-|-
E|-0-----------0---|-------3---------|-------0---------|-----------5-----|-0---------0-3---|-



E|-------0---------|-------------3---|---2-----3-------|---------3---2---|-----0---3-0-----|-
B|-------------3---|-------1---------|-----3---------0-|-----3---3-----5-|-------------5---|-
G|---------2-------|-----0---------2-|-------------2---|-------2---------|-----4---------8-|-
D|-----0-----2-----|---2-------------|-------0---------|-0-0-------------|-----------------|-
A|---2-----------2-|-3-------2-------|-0-2-------------|-----------------|---2---2---------|-
E|-0-----0-----3---|-------1---0-----|-----------0-----|-----------0-----|-0---------------|-



E|-----0-------3---|-----3---2---5-7-|-8-----3-8-2-----|---------3---4---|-----5-----0-----|-
B|---------3-0-----|-----------5-----|---3---------1---|-----3-----5-----|---------1-------|-
G|-----------------|-------2---------|-----2---------4-|---------------4-|-----------------|-
D|---0-----------2-|---2-0---------6-|-5---------------|---2---------2---|-2---2-----------|-
A|-----5-----------|-3---------------|-----------------|-----2-1---------|---5---------3---|-
E|-0-----3---------|-----------------|-----------------|-0---------------|-0-----3-------6-|-



E|-----3---5---2---|---------5-------|-7-------8-------|-----3-----------|-------0-----3---|-
B|---------------5-|-----2-----7-----|---5-------------|-------0---------|---------3-------|-
G|---2-------7-----|-------4---------|-----5-----5-----|-------------0---|-----------2---0-|-
D|-0---------------|---2---------5-7-|-6-------5---5---|---------5-7-----|-----2-----------|-
A|-----2-----------|-0---2-----------|-----------------|---2-2---------2-|---2-------------|-
E|-------3---------|-------------3---|-------4-------4-|-1---------5-----|-0-----0-----3---|-
http://www.guitartabcreator.com
Guitar Tab Creator is intended to store guitar tab created through the tool. It currently does not support in-line text editing. Any text you place in here will be lost. If you need to comment on your tab, please use the "Tab Notes" section located below.