Lights Out

(/) Slide Up  (\) Slide Down  (h) Hammer On  (p) Pull Off  (b) Bend (r) Release (v) Vibrato


E|-----------------|-----------------|-----------------|-----------------|-
B|-----------------|-----------------|-----------------|-----------------|-
G|-----------------|-----------------|-----------------|-----------------|-
D|-----------------|-----------------|-5---------------|-7---------------|-
A|-2---------------|-----------------|-3-3-3-3-3-3-3-3-|-5-5-5-5-5-5-5-5-|-
E|-0-0-0-0-0-0-0-0-|-0-0-0-0-0-0-0-0-|-----------------|-----------------|-



E|-----------------|-----------------|-----------------|----------------|---
B|-----------------|-----------------|-----------------|----------------|---
G|-----------------|-----------------|-----------------|----------------|---
D|---------------5-|---------------5-|---------------5-|----------------|---
A|-----7-5-----7---|-----7-5-----7---|-----7-5-----7---|-----7-5-----7--|---
E|-0-0-----0-0-----|-0-0-----0-0-----|-0-0-----0-0-----|-0-0-----0-0----|---



E|------------------|------------------|---
B|------------------|------------------|---
G|------------------|------------------|---
D|------------------|------------------|---
A|-2-2-7p5-2-2-7h10-|-2-2-7p5-2-2-7h10-|---
E|-0-0-----0-0------|-0-0-----0-0------|---
http://www.guitartabcreator.com
Guitar Tab Creator is intended to store guitar tab created through the tool. It currently does not support in-line text editing. Any text you place in here will be lost. If you need to comment on your tab, please use the "Tab Notes" section located below.