Left Alone

(/) Slide Up  (\) Slide Down  (h) Hammer On  (p) Pull Off  (b) Bend (r) Release (v) Vibrato
E|-------------------------------|---------------------------------|-
B|-------------------------------|---------------------------------|-
G|-------------------------------|---------------------------------|- 2x
D|-------------------------------|---------------------------------|-
A|-------------------------------|---------------------------------|-
E|-0-0-0-0-0-0-0-0-0-0-0-0-0-0-0-|-0-0-0-0-0-0-0-0-0-0-0-0-0-0-0-0-|-


intro
E|-----------------|-----------------|-----------------|-----------------|-
B|-----1-----1-1---|-----1-----1-1---|-----1-----1-1---|-----1-----1-1---|-
G|---1---1-------1-|---1---1-------1-|---1---1-------1-|---1---1-------1-|- 2x
D|-3-------3-------|-3-------3-------|-3-------3-------|-3-------3-------|-
A|-----------------|-----------------|-----------------|-----------------|-
E|-----------------|-----------------|-----------------|-----------------|-



E|-----1-----1-1---|-----1-----1-1---|-----1-----1-1---|-----1-----1-1---|-
B|---1---1-------1-|---1---1-------1-|---1---1-------1-|---1---1-------1-|-
G|-1-------1-------|-1-------1-------|-1-------1-------|-1-------1-------|- 2x
D|-3-------3-------|-3-------3-------|-3-------3-------|-3-------3-------|-
A|-----------------|-----------------|-----------------|-----------------|-
E|-----------------|-----------------|-----------------|-----------------|-



E|-1--1---1--1---|-1--1---1--1---|-1--1---1--1---|-8-8-9-9-10-10-11-11-|-
B|-1----1------1-|-1----1------1-|-1----1------1-|---------------------|-
G|-1-------------|-1-------------|-1-------------|---------------------|- 2x
D|-3-------------|-3-------------|-3-------------|---------------------|-
A|---------------|---------------|---------------|---------------------|-
E|---------------|---------------|---------------|---------------------|-


verse 1
E|-----------------|-----------------|-
B|-----------------|-----------------|-
G|-----------------|-----------------|-
D|-----------------|-----------------|-
A|-3-3-4-4-3-3-4-4-|-3-3-4-4-5-6-7---|-
E|-1-1-2-2-1-1-2-2-|-1-1-2-2-3-4-5-0-|-


pre-chorus
E|------------------------|-----------------|-
B|------------------------|-----------------|-
G|------------------------|-----------------|-
D|-9-8-10-7-9-8-9---------|-9-8-10-7-9--9-9-|-
A|-7-6-8--5-7-6-7---------|-7-6-8--5-7--7-7-|-
E|----------------0-0-0-0-|-----------------|-


chorus
E|---------------------|-------------------|---------------------|---------------------|-
B|---------------------|-------------------|---------------------|---------------------|-
G|---------------------|-------------------|---------------------|---------------------|-
D|---------------------|-------------------|---------------------|---------------------|-
A|---------------------|-------------------|---------------------|---------------------|-
E|-0-0-18-16-0-0-17-15-|-0-18-16-0-0-21-19-|-0-0-18-16-0-0-17-15-|-0-0-18-16-0-0-21-19-|-



E|---------------------------------|---------------------------------|-
B|---------------------------------|---------------------------------|-
G|---------------------------------|---------------------------------|-
D|---------------------------------|---------------------------------|-
A|---------------------------------|---------------------------------|-
E|-0-1-0-1-0-1-0-1-0-1-0-1-0-1-0-1-|-0-1-0-1-0-1-0-1-0-1-0-1-0-1-0-1-|-



E|------|------|-------|-
B|------|------|-------|-
G|------|------|-------|-
D|-7----|----5-|-------|-
A|-7----|----5-|-------|-
E|-5----|----3-|----21\|-



E|-----------------|-----------------|-----------------|-----------------|-
B|-----1-----1-1---|-----1-----1-1---|-----1-----1-1---|-----1-----1-1---|-
G|---1---1-------1-|---1---1-------1-|---1---1-------1-|---1---1-------1-|-
D|-3-------3-------|-3-------3-------|-3-------3-------|-3-------3-------|-
A|-----------------|-----------------|-----------------|-----------------|-
E|-----------------|-----------------|-----------------|-----------------|-

(play verse 2)

E|--------------|-------|-
B|--------------|-------|-
G|--------------|-------|-
D|--------------|-------|-
A|-11--10--9--8-|-------|-
E|-9---8---7--6-|-17h21\|-


solo/wah
E|-------------------------|-------------------------|-
B|-------------------------|-------------------------|-
G|-------------------------|-------------------------|-
D|-------------------------|-------------------------|-
A|-12-15-12-15-12-15-12-15-|-12-15-12-15-12-15-12-15-|-
E|-12-15-12-15-12-15-12-15-|-12-15-12-15-12-15-12-15-|-



E|-19p12p9p7-19p12p9p7-19p12p9p7-19p12p9p7-|-20p12p9p7-20p12p9p7-21p12p9--|---
B|-----------------------------------------|------------------------------|---
G|-----------------------------------------|------------------------------|---
D|-----------------------------------------|------------------------------|---
A|-----------------------------------------|------------------------------|---
E|-----------------------------------------|------------------------------|---



E|-------------------------------------------------|-
B|-------------------------------------------------|-
G|-------------------------------------------------|-
D|----12h14p12----12h14p12----12h14p12----12h13p12-|-
A|-14----------14----------14----------14----------|-
E|-------------------------------------------------|-



E|-------------------------------------------------|-
B|-------------------------------------------------|-
G|-------------------------------------------------|-
D|----12h14p12----12h14p12----12h14p12----12h13p12-|-
A|-14----------14----------14----------14----------|-
E|-------------------------------------------------|-



E|----8h10p8----8h10p8----8h11p8----8h9p8-|----8h10p8----8h10p8----8h11p8----8h9p8-|-
B|-12--------11--------12--------11-------|-12--------11--------12--------11-------|-
G|----------------------------------------|----------------------------------------|-
D|----------------------------------------|----------------------------------------|-
A|----------------------------------------|----------------------------------------|-
E|----------------------------------------|----------------------------------------|-



E|----13h16p13----13h15p13----13h16p13----13h15p13-|---
B|-16----------16----------16----------16----------|---
G|-------------------------------------------------|---
D|-------------------------------------------------|---
A|-------------------------------------------------|---
E|-------------------------------------------------|---



E|----16h18p16----16h17p16----16h18p16----16h17p16-|-
B|-18----------18----------18----------18----------|-
G|-------------------------------------------------|-
D|-------------------------------------------------|-
A|-------------------------------------------------|-
E|-------------------------------------------------|-



E|----14h17p14----14h17p14----14h17p14----14h17p14-|-
B|-17----------16----------15----------18----------|-
G|-------------------------------------------------|-
D|-------------------------------------------------|-
A|-------------------------------------------------|-
E|-------------------------------------------------|-



E|-----7-----7-----7-----7-----7-|-----6-----6-----6-----6-|-
B|-3h7---3h7---3h7---3h7---3h7---|-3h6---3h6---3h6---3h6---|-
G|-------------------------------|-------------------------|-
D|-------------------------------|-------------------------|-
A|-------------------------------|-------------------------|-
E|-------------------------------|-------------------------|-



E|-----5-----5-----5-----5-|-----4-----4-----4-----4-|-
B|-3h5---3h5---3h5---3h5---|-3h4---3h4---3h4---3h4---|-
G|-------------------------|-------------------------|-
D|-------------------------|-------------------------|-
A|-------------------------|-------------------------|-
E|-------------------------|-------------------------|-



E|-21/21/|-15p14p12-15p14p12-15p14p12-15p14p12-|-
B|-------|-------------------------------------|-
G|-------|-------------------------------------|-
D|-------|-------------------------------------|-
A|-------|-------------------------------------|-
E|-------|-------------------------------------|-



E|-------------------------|-------------------------|-
B|-------------------------|-------------------------|-
G|-------------------------|-------------------------|-
D|-------------------------|-------------------------|-
A|-3-3-2-3-3-2-3-3-2-3-3-2-|-3-3-2-3-3-2-3-3-2-3-3-2-|-
E|-1-1-0-1-1-0-1-1-0-1-1-0-|-1-1-0-1-1-0-1-1-0-1-1-0-|-



E|---------------------------------|---------------------------------|-
B|---------------------------------|---------------------------------|-
G|---------------------------------|---------------------------------|-
D|---------------------------------|---------------------------------|-
A|---------------------------------|---------------------------------|-
E|-0-0-0-0-0-0-0-0-0-0-0-0-0-0-0-0-|-0-0-0-0-0-0-0-0-0-0-0-0-0-0-0-0-|-



E|------------|------------|------|-
B|------------|------------|------|-
G|------------|------------|------|-
D|------------|------------|---2--|-
A|-2--2--2--2-|-2--2--2--2-|---2--|-
E|-0--0--0--0-|-0--0--0--0-|---0--|-



E|-5----|-4----|-3----|-2----|-
B|-4----|-3----|-2----|-1----|-
G|-5----|-4----|-3----|-2----|-
D|-4----|-3----|-2----|-1----|-
A|------|------|------|------|-
E|------|------|------|------|-


bridge
E|-------------------------------|---------------------------------|-------------|-
B|-------------------------------|---------------------------------|-------------|-
G|-5-7-9-7-5-7-9-7-5-7-9-7-7-9-7-|-5-7-9-7-5-7-9-7-5-7-9-7-5-7-9-7-|-------------|-
D|-------------------------------|---------------------------------|-------------|-
A|-------------------------------|---------------------------------|-------------|-
E|-------------------------------|---------------------------------|-0--0--0--0--|-



E|---------------------------------|---------------------------------|-
B|---------------------------------|---------------------------------|-
G|---------------------------------|---------------------------------|-
D|---------------------------------|---------------------------------|-
A|-2-3-2-3-2-3-2-3-2-3-2-3-2-3-2-3-|-2-3-2-3-2-3-2-3-2-3-2-3-2-3-2-3-|-
E|---------------------------------|---------------------------------|-

chorus

E|---------------------|---------------------|-----------------------------------------|-
B|---------------------|---------------------|-----------------------------------------|-
G|---------------------|---------------------|-----------------------------------------|-
D|---------------------|---------------------|-----------------------------------------|-
A|---------------------|---------------------|-----------------------------------------|-
E|-0-0-18-16-0-0-17-15-|-0-0-18-16-0-0-21-19-|-0-0-18-16-0-0-17-15-0-0-18-16-0-0-21-19-|-



E|---------------------------------|---------------------------------|-
B|---------------------------------|---------------------------------|-
G|---------------------------------|---------------------------------|-
D|---------------------------------|---------------------------------|-
A|---------------------------------|---------------------------------|-
E|-0-1-0-1-0-1-0-1-0-1-0-1-0-1-0-1-|-0-1-0-1-0-1-0-1-0-1-0-1-0-1-0-1-|-



E|------|------|------|-
B|------|------|------|-
G|------|------|------|-
D|-7----|----5-|------|-
A|-7----|----5-|------|-
E|-5----|----3-|---21\|-


outro
E|-----------------|-----------------|-----------------|-----------------|-
B|-----1-----1-1---|-----1-----1-1---|-----1-----1-1---|-----1-----1-1---|-
G|---1---1-------1-|---1---1-------1-|---1---1-------1-|---1---1-------1-|-
D|-3-------3-------|-3-------3-------|-3-------3-------|-3-------3-------|-
A|-----------------|-----------------|-----------------|-----------------|-
E|-----------------|-----------------|-----------------|-----------------|-



E|--1--------|-----------|--
B|--1--------|-----------|--
G|--1--------|-----------|-- end
D|--3--------|-----------|--
A|-----------|-----------|--
E|-----------|--------15\|--
http://www.guitartabcreator.com
Guitar Tab Creator is intended to store guitar tab created through the tool. It currently does not support in-line text editing. Any text you place in here will be lost. If you need to comment on your tab, please use the "Tab Notes" section located below.