The Last Day

(/) Slide Up  (\) Slide Down  (h) Hammer On  (p) Pull Off  (b) Bend (r) Release (v) Vibrato

E|-------5h7-------5h7--|-------5h7-------5h7--|-------5h7-------5h7--|-------7h9---------------|--
B|--5h7-------5h7-------|--4h7-------4h7-------|--5h7-------5h7-------|--7h9-------7h10--10h12--|--
G|----------------------|----------------------|----------------------|-------------------------|--
D|----------------------|----------------------|----------------------|-------------------------|--
A|----------------------|----------------------|----------------------|-------------------------|--
E|----------------------|----------------------|----------------------|-------------------------|--



E|-------5h7-------5h7--|-------5h7-------5h7--|-------5h7-------5h7--|-------7h9---------------|--
B|--5h7-------5h7-------|--4h7-------4h7-------|--5h7-------5h7-------|--7h9-------7h10--10h12--|--
G|----------------------|----------------------|----------------------|-------------------------|--
D|----------------------|----------------------|----------------------|-------------------------|--
A|----------------------|----------------------|----------------------|-------------------------|--
E|----------------------|----------------------|----------------------|-------------------------|--



E|-------12-------12-12----|-------12-------12-12----|-------12-------12-12----|---
B|----12----12----------12-|----12----12----------12-|----12----12----------12-|---
G|-12----------12----------|-12----------12----------|-12----------12----------|---
D|-------------------------|-------------------------|-------------------------|---
A|-------------------------|-------------------------|-------------------------|---
E|-------------------------|-------------------------|-------------------------|---



E|-------12-------12-12----|-------12-------12-12----|-------12-------12-12----|-
B|----12----12----------12-|----12----12----------12-|----12----12----------12-|-
G|-12----------12----------|-12----------12----------|-12----------12----------|-
D|-------------------------|-------------------------|-------------------------|-
A|-------------------------|-------------------------|-------------------------|-
E|-------------------------|-------------------------|-------------------------|-



E|-------12-------12-12----|-------12-------12-12----|-12--12----------12----|---------------
B|----12----12----------12-|----12----12----------12-|-12-----12----12----12-|-10h12--9h10---
G|-12----------12----------|-12----------12----------|-12--------12----------|---------------
D|-------------------------|-------------------------|-----------------------|---------------
A|-------------------------|-------------------------|-----------------------|---------------
E|-------------------------|-------------------------|-----------------------|---------------



E|-----------|-12--12----------12----|------------------------|-12--12----------12----|-
B|-7h9p7-5h7-|-12-----12----12----12-|-10h12--9h10--7h9p7-5h7-|-12-----12----12----12-|-
G|-----------|-12--------12----------|------------------------|-12--------12----------|-
D|-----------|-----------------------|------------------------|-----------------------|-
A|-----------|-----------------------|------------------------|-----------------------|-
E|-----------|-----------------------|------------------------|-----------------------|-



E|------------------------|-12--14-12-11--------12----|----12-12----------12----|----12-12-12---|-
B|-10h12--9h10--7h9p7-5h7-|-12--14-12-11-----12----12-|----------12----12----12-|----------12---|-
G|------------------------|-12--14-12-11--12----------|-12----------12----------|-12-------12---|-
D|------------------------|---------------------------|-------------------------|---------------|-
A|------------------------|---------------------------|-------------------------|---------------|-
E|------------------------|---------------------------|-------------------------|---------------|-



E|-12--12----------12----|------------------------|-12--12----------12----|---
B|-12-----12----12----12-|-10h12--9h10--7h9p7-5h7-|-12-----12----12----12-|---
G|-12--------12----------|------------------------|-12--------12----------|---
D|-----------------------|------------------------|-----------------------|---
A|-----------------------|------------------------|-----------------------|---
E|-----------------------|------------------------|-----------------------|---



E|------------------------|-12--12----------12----|------------------------|-12--14-12-11----
B|-10h12--9h10--7h9p7-5h7-|-12-----12----12----12-|-10h12--9h10--7h9p7-5h7-|-12--14-12-11----
G|------------------------|-12--------12----------|------------------------|-12--14-12-11----
D|------------------------|-----------------------|------------------------|-----------------
A|------------------------|-----------------------|------------------------|-----------------
E|------------------------|-----------------------|------------------------|-----------------



E|-------12----|----12-12----------12----|----12-12------------|-
B|----12----12-|----------12----12----12-|----------12---------|-
G|-12----------|-12----------12----------|-12--------------9-7-|-
D|-------------|-------------------------|---------------9---7-|-
A|-------------|-------------------------|-------------7-----5-|-
E|-------------|-------------------------|---------------------|-



E|-------5h7-------5h7--|-------5h7-------5h7--|-------5h7-------5h7--|-------7h9---------------|--
B|--5h7-------5h7-------|--4h7-------4h7-------|--5h7-------5h7-------|--7h9-------7h10--10h12--|--
G|----------------------|----------------------|----------------------|-------------------------|--
D|----------------------|----------------------|----------------------|-------------------------|--
A|----------------------|----------------------|----------------------|-------------------------|--
E|----------------------|----------------------|----------------------|-------------------------|--



E|-------5h7-------5h7--|-------5h7-------5h7--|-------5h7-------5h7--|-------7h9---------------|--
B|--5h7-------5h7-------|--4h7-------4h7-------|--5h7-------5h7-------|--7h9-------7h10--10h12--|--
G|----------------------|----------------------|----------------------|-------------------------|--
D|----------------------|----------------------|----------------------|-------------------------|--
A|----------------------|----------------------|----------------------|-------------------------|--
E|----------------------|----------------------|----------------------|-------------------------|--



E|-----7------5--|-----7------5--|-----7------5--|-----7------5-|-----7------5--|-----7------5--|-
B|---7------5----|---7------5----|---7------5----|---7------5---|---7------5----|---7------5----|-
G|-7------5------|-7------5------|-7------5------|-7------5-----|-7------5------|-7------5------|-
D|---------------|---------------|---------------|--------------|---------------|---------------|-
A|---------------|---------------|---------------|--------------|---------------|---------------|-
E|---------------|---------------|---------------|--------------|---------------|---------------|-



E|-----7------5--|-----7------5--|-----7------5--|-----7------5--|--------|--------|-
B|---7------5----|---7------5----|---7------5----|---7------5----|--------|--------|-
G|-7------5------|-7------5------|-7------5------|-7------5------|--------|--------|-
D|---------------|---------------|---------------|---------------|--------|--------|-
A|---------------|---------------|---------------|---------------|---5----|---4----|-
E|---------------|---------------|---------------|---------------|-3------|-2------|-



E|-15p12--15p12--15p12-|-15p12--15p12--15p12-|-14p12--14p12--14p12-|-16p12--17p12-18p12-|-
B|---------------------|---------------------|---------------------|--------------------|-
G|---------------------|---------------------|---------------------|--------------------|-
D|---------------------|---------------------|---------------------|--------------------|-
A|---------------------|---------------------|---------------------|--------------------|-
E|---------------------|---------------------|---------------------|--------------------|-



E|-19b20-19b20-19b20--18p16p14-|----12h17p12----12h17p12----12h17p12----12h17p12-|-
B|-----------------------------|-15----------15----------15----------15----------|-
G|-----------------------------|-------------------------------------------------|-
D|-----------------------------|-------------------------------------------------|-
A|-----------------------------|-------------------------------------------------|-
E|-----------------------------|-------------------------------------------------|-



E|----12h17p12----12h17p12----12h17p12----12h17p12-|-21b21b21b21b18p17-16p15-14p13-12p11p10p9-|-
B|-15----------15----------15----------15----------|------------------------------------------|-
G|-------------------------------------------------|------------------------------------------|-
D|-------------------------------------------------|------------------------------------------|-
A|-------------------------------------------------|------------------------------------------|-
E|-------------------------------------------------|------------------------------------------|-



E|--------|--------|-----------12-------|-----------12-------|-----------12-------|---
B|--------|--------|--------------12----|--------------12----|--------------12----|---
G|--------|--------|-----------------12-|-----------------12-|-----------------12-|---
D|--------|--------|-------12-----------|-------12-----------|-------12-----------|---
A|---2----|---2----|----12--------------|----12--------------|----12--------------|---
E|-0------|-0------|-12-----------------|-12-----------------|-12-----------------|---



E|-----------12-------|-----------------|-----------------|-----------------|-----------------|-
B|--------------12----|-----------------|-----------------|-----------------|-----------------|-
G|-----------------12-|-9-8-7-6-6-5-4-3-|-9-8-7-6-6-5-4-3-|-9-8-7-6-6-5-4-3-|-9-8-7-6-6-5-4-3-|-
D|-------12-----------|-----------------|-----------------|-----------------|-----------------|-
A|----12--------------|-----------------|-----------------|-----------------|-----------------|-
E|-12-----------------|-----------------|-----------------|-----------------|-----------------|-



E|-----------------|-----------------|--------|--------|------|--------|-
B|-----------------|-----------------|--------|--------|------|--------|-
G|-9-8-7-6-6-5-4-3-|-9-8-7-6-6-5-4-3-|--------|--------|------|--------|-
D|-----------------|-----------------|--------|--------|------|--------|-
A|-----------------|-----------------|-7----6-|-5----4-|-3----|---3----|-
E|-----------------|-----------------|-5----4-|-3----2-|-1----|-1------|-



E|---------------------------------|---------------------------------|-
B|---------------------------------|---------------------------------|-
G|---------------------------------|---------------------------------|-
D|---------------------------------|---------------------------------|-
A|---------------------------------|---------------------------------|-
E|-0-0-0-0-0-0-0-0-0-0-0-0-0-0-0-0-|-0-0-0-0-0-0-0-0-0-0-0-0-0-0-0-0-|-



E|---------------------------------|---------------------------------|-------------|--------------|-
B|---------------------------------|---------------------------------|-------------|--------------|-
G|---------------------------------|---------------------------------|-------------|--------------|-
D|---------------------------------|---------------------------------|-------------|--------------|-
A|---------------------------------|---------------------------------|-2--2--2-----|-2--2--2------|-
E|-0-0-0-0-0-0-0-0-0-0-0-0-0-0-0-0-|-0-0-0-0-0-0-0-0-0-0-0-0-0-0-0-0-|-0--0--0-0-0-|-0--0--0--0-0-|-



E|--------------|-------------|--------------|--------------|-----------------------|-
B|--------------|-------------|--------------|--------------|-----------------------|-
G|--------------|-------------|--------------|--------------|-----------------------|-
D|--------------|-------------|--------------|--------------|-----------------------|-
A|-2--2--2------|-2--2--2-----|-2--2--2------|-2--2--2------|-----------------------|-
E|-0--0--0--0-0-|-0--0--0-0-0-|-0--0--0--0-0-|-0--0--0--0-0-|-0-0-2-2-3-3-4-5-5-5-5-|-



E|---------------------------------|---------------------------------|-------
B|---------------------------------|---------------------------------|-------
G|---------------------------------|---------------------------------|-------
D|---------------------------------|---------------------------------|-------
A|-------------------------2-2-2-2-|-------------------------2-2-2-2-|-------
E|-3p2p0-0-3p2p0-0-3p2p0-0-0-0-0-0-|-3p2p0-0-3p2p0-0-3p2p0-0-0-0-0-0-|-3p2p0-



E|---------------------------|---------------------------------|-----------------|---
B|---------------------------|---------------------------------|-----------------|---
G|---------------------------|---------------------------------|-----------------|---
D|---------------------------|---------------------------------|-4-4-4-4-4-5-6-7-|---
A|-------------------2-2-2-2-|-------------------------2-2-2-2-|-2-2-2-2-2-3-4-5-|---
E|-0-3p2p0-0-3p2p0-0-0-0-0-0-|-3p2p0-0-3p2p0-0-3p2p0-0-0-0-0-0-|-----------------|---



E|-----------------|--------|--------|---------------------------------|-
B|-----------------|--------|--------|---------------------------------|-
G|-----------------|--------|--------|---------------------------------|-
D|-4-4-4-4-4-5-6-7-|---9----|---8----|---------------------------------|-
A|-2-2-2-2-2-3-4-5-|-7------|-6------|-----2-2-----2-2-----2-2-----2-2-|-
E|-----------------|--------|--------|-0-0-0-0-0-0-0-0-0-0-0-0-0-0-0-0-|-



E|---------------------------------|----------------|----------------|-
B|---------------------------------|----------------|----------------|-
G|---------------------------------|----------------|----------------|-
D|---------------------------------|-5------5-------|-4------4-------|-
A|-----2-2-----2-2-----2-2-----2-2-|-5----5---5---5-|-4----4---4---4-|-
E|-0-0-0-0-0-0-0-0-0-0-0-0-0-0-0-0-|-3--3-------3---|-2--2-------2---|-



E|-------------------------------------------------|-
B|-15p12-17p12-15p12-17p12-15p12-17p15-15p12-17p12-|-
G|-------------------------------------------------|-
D|-------------------------------------------------|-
A|-------------------------------------------------|-
E|-------------------------------------------------|-



E|-------------------------------------------------|-
B|-15p12-17p12-15p12-17p12-15p12-17p15-15p12-17p12-|-
G|-------------------------------------------------|-
D|-------------------------------------------------|-
A|-------------------------------------------------|-
E|-------------------------------------------------|-



E|-15p12-17p12-15p12-17p12-15p12-17p15-15p12-17p15-|-
B|-------------------------------------------------|-
G|-------------------------------------------------|-
D|-------------------------------------------------|-
A|-------------------------------------------------|-
E|-------------------------------------------------|-



E|-15-14h15-17-16h17-19-18h19-21-20h21-|-21b21b21--10p6h10-|-10p6h10-10p6h10-10h6p10-10p6h10-|-
B|-------------------------------------|-------------------|---------------------------------|-
G|-------------------------------------|-------------------|---------------------------------|-
D|-------------------------------------|-------------------|---------------------------------|-
A|-------------------------------------|-------------------|---------------------------------|-
E|-------------------------------------|-------------------|---------------------------------|-



E|-15p14h15-17p16h17-19p18h19-21p20h21-|-21b21b21b21b21b21b21b21b21b21b21b21b21b21b21b|-
B|-------------------------------------|----------------------------------------------|-
G|-------------------------------------|----------------------------------------------|-
D|-------------------------------------|----------------------------------------------|-
A|-------------------------------------|----------------------------------------------|-
E|-------------------------------------|----------------------------------------------|-



E|----------------------------|----------------------------|---------------------------|-
B|----------------------------|----------------------------|---------------------------|-
G|----------------------------|----------------------------|---------------------------|-
D|-5--------------------------|-5--------------------------|-5-------------------------|-
A|-5--------------------------|-5--------------------------|-5-------------------------|-
E|-3--0-0-0-0-0-0-0-0-0-0-0-0-|-3--0-0-0-0-0-0-0-0-0-0-0-0-|-3-0-0-0-0-0-0-0-0-0-0-0-0-|-



E|---------------|---------------------------|---------------------------|-
B|---------------|---------------------------|---------------------------|-
G|---------------|---------------------------|---------------------------|-
D|-5--------4--3-|-5-------------------------|-5-------------------------|-
A|-5--------4--3-|-5-------------------------|-5-------------------------|-
E|-3--0-0-0-2--1-|-3-0-0-0-0-0-0-0-0-0-0-0-0-|-3-0-0-0-0-0-0-0-0-0-0-0-0-|-



E|----------------------------|---------------|---------------------------------|-
B|----------------------------|---------------|---------------------------------|-
G|----------------------------|---------------|---------------------------------|-
D|-5--------------------------|-5--------4--3-|---------------------------------|-
A|-5--------------------------|-5--------4--3-|---------------------------------|-
E|-3--0-0-0-0-0-0-0-0-0-0-0-0-|-3--0-0-0-2--1-|-0-0-0-0-0-0-0-0-0-0-0-0-0-0-0-0-|-



E|-----------------|-----------------|-----------------------------|-
B|-----------------|-----------------|-----------------------------|-
G|-----------------|-----------------|-----------------------------|-
D|-4-4-4-4-4-5-6-7-|-4-4-4-4-4-5-6-7-|--5--------------------------|-
A|-2-2-2-2-2-3-4-5-|-2-2-2-2-2-3-4-5-|--5--------------------------|-
E|-----------------|-----------------|--3--0-0-0-0-0-0-0-0-0-0-0-0-|-



E|---------------------------------|---------------------------------|-
B|---------------------------------|---------------------------------|-
G|---------------------------------|---------------------------------|-
D|---------------------------------|---------------------------------|-
A|---------------------------------|---------------------------------|-
E|-0-0-0-0-0-0-0-0-0-0-0-0-0-0-0-0-|-0-0-0-0-0-0-0-0-0-0-0-0-0-0-0-0-|-



E|---------------------------------|----------------|----------------|-------|--------------|-
B|---------------------------------|----------------|----------------|-------|--------------|-
G|---------------------------------|----------------|----------------|-------|--------------|-
D|---------------------------------|----------------|----------------|-------|--------------|-
A|---------------------------------|-2-2------------|-2-2--2--2--2-2-|-2--2--|-2-2--------2-|-
E|-0-0-0-0-0-0-0-0-0-0-0-0-0-0-0-0-|-0-0--0-0-0-0-0-|-0-0--0--0--0-0-|-0--0--|-0-0-0-0--0-0-|-



E|------|------|-
B|------|------|-
G|------|------|-
D|------|------|-
A|-2----|----2-|-
E|-0----|----0-|-
http://www.guitartabcreator.com
Guitar Tab Creator is intended to store guitar tab created through the tool. It currently does not support in-line text editing. Any text you place in here will be lost. If you need to comment on your tab, please use the "Tab Notes" section located below.