Kingdom Come

intro
E|---6---------------|---6---------7-5-|---5---------5-7-|---6-7-----------|---------------------|-
B|-----7---8-5-------|-----7---8-5-----|-----7---8-5-----|-------7-----5-4-|---------------------|-
G|-0-----7-----3-4-5-|-0-----7---------|-0-----7---------|-0-------5-5-----|---------------------|-
D|-------------------|-----------------|-----------------|-----------------|-------0-2-0---------|-
A|-------------------|-----------------|-----------------|-----------------|---2-2-------2-2-----|-
E|-------------------|-----------------|-----------------|-----------------|-0---------------0---|-



E|---5---5-6-5-----|---5---5-6-5-----|---5---5h6p5-----|---5---6-6-5-----|---------------------|-
B|-----6-----------|-----6-------7-5-|-----6-----------|-----6-------5-4-|---------------------|-
G|-------------7-5-|-----------------|-----------------|-----------------|---------------------|-
D|-0---------------|-0---------------|-0-----------7-5-|-0---------------|-------0-2-0---------|-
A|-----------------|-----------------|-----------------|-----------------|---2-2-------2-2-----|-
E|-----------------|-----------------|-----------------|-----------------|-0---------------0---|-



E|---6-6-----------|---6-6-----------|---6-6-----------|---6-5-----------|---------------------|-
B|-------7-8-5---5-|-------7-9-6-----|-------8-5---5---|---------7---5-4-|---------------------|-
G|-------------7---|---------------6-|-----------7---6-|-------7---7-----|---------------------|-
D|-0---------------|-0-----------8---|-0---------------|-0---------------|-------0-2-0---------|-
A|-----------------|-----------------|-----------------|-----------------|---2-2-------2-2-----|-
E|-----------------|-----------------|-----------------|-----------------|-0---------------0---|-



E|---6-3-2---------|---6-3-2---------|---6-3-2---------|---6-3-2-----------|---------------------|-
B|-----------5-----|---------7-5-----|-----------------|-------------5-5-4-|---------------------|-
G|---------7-------|-------------5-7-|-----------7---5-|-------------------|---------------------|-
D|-0-----------7-5-|-0---------------|-0-------5---7---|-0-------9-7-------|-------0-2-0---------|-
A|-----------------|-----------------|-----------------|-------------------|---2-2-------2-2-----|-
E|-----------------|-----------------|-----------------|-------------------|-0---------------0---|-



E|-1-1-----1-------|-1-1-----1-------|-----------------|-----------------|-----------------|-
B|-1---1-----1-----|-1---1-----1-----|-----------------|-----------------|-----------------|-
G|-1-----1---------|-1-----1---------|-------9-----9---|-------7-----7---|-------5-------4-|-
D|-1---------------|-1---------------|-----9---9-----9-|-----7---7-----7-|-----5-------4---|-
A|-1-----------1---|-1-----------1---|---7-------7-----|---5-------5-----|---3-------2-----|-
E|-1-------------1-|-1-------------1-|-0---------------|-0---------------|-0-------0-------|-



E|-1-1-----1-------|-1-1-----1-------|-----------------|-----------------|-----------------|-
B|-1---1-----1-----|-1---1-----1-----|-----------------|-----------------|-----------------|-
G|-1-----1---------|-1-----1---------|-------9-----9---|-------7-----7---|-------5-------4-|-
D|-1---------------|-1---------------|-----9---9-----9-|-----7---7-----7-|-----5-------4---|-
A|-1-----------1---|-1-----------1---|---7-------7-----|---5-------5-----|---3-------2-----|-
E|-1-------------1-|-1-------------1-|-0---------------|-0---------------|-0-------0-------|-



E|-----------------|-----------------|-----------------|-----------------|-
B|-----------------|-----------------|-----------------|-----------------|-
G|-----------------|-----------------|-----------------|-----------------|-
D|-------0-2-0-----|-------0-2-0-----|-------0-2-0-----|-------0-2-0-----|-
A|---2-2-------2-2-|---2-2-------2-2-|---2-2-------2-2-|---2-2-------2-2-|-
E|-0---------------|-0---------------|-0---------------|-0---------------|-



E|-----------------|-----------------|-----------------|------------------|-
B|-----------------|-----------------|-----------------|------------------|-
G|-----------------|-----------------|-----------------|------------------|-
D|-------0-2-0-----|-------0-2-0-----|-------0-2-0-----|-------0-1--------|-
A|---2-2-------2-2-|---2-2-------2-2-|---2-2-------2-2-|---2-2-----4-2-1--|-
E|-0---------------|-0---------------|-0---------------|-0----------------|-


verse 1
E|-----------------|-----------------|-----------------|-
B|-----------------|-----------------|-----------------|-
G|-----------------|-------9-------7-|-------5-------4-|-
D|-------0-2-0-----|-----9-------7---|-----5-------4---|-
A|---2-2-------2-2-|---7-------5-----|---3-------2-----|-
E|-0---------------|-0-------0-------|-0-------0-------|-



E|-----------------------|-----------------------|-----------------------|-
B|-----------------------|-----------------------|-----------------------|-
G|-----------------------|-----------------------|-----------------------|-
D|---------0-2-0---------|---------0-2-0---------|---------0-2-0---------|-
A|---1/2-2-------1/2-1/2-|---1/2-2-------1/2-1/2-|---1/2-2-------1/2-1/2-|-
E|-0---------------------|-0---------------------|-0---------------------|-



E|-----------------------|-----------------------|-
B|-----------------------|-----------------------|-
G|-----------------------|-----------------------|-
D|---------0-2-0---------|---------0-2-0---------|-
A|---1/2-2-------1/2-1/2-|---1/2-2-------1/2-1/2-|-
E|-0---------------------|-0---------------------|-


chorus
E|-1-1-----1-------|-1-1-----1-------|-----------------|-----------------|---
B|-1---1-----1-----|-1---1-----1-----|-----------------|-----------------|---
G|-1-----1---------|-1-----1---------|-------9-------7-|-------5-------4-|---
D|-1---------------|-1---------------|-----9-------7---|-----5-------4---|---
A|-1-----------1---|-1-----------1---|---7-------5-----|---3-------2-----|---
E|-1-------------1-|-1-------------1-|-0-------0-------|-0-------0-------|---



E|-----------------|-----------------|-----------------------|-----------------------|-
B|-----------------|-----------------|-----------------------|-----------------------|-
G|-------9-------7-|-------5-------4-|-----------------------|-----------------------|-
D|-----9-------7---|-----5-------4---|---------0-2-0---------|---------0-2-0---------|-
A|---7-------5-----|---3-------2-----|---1/2-2-------1/2-1/2-|---1/2-2-------1/2-1/2-|-
E|-0-------0-------|-0-------0-------|-0---------------------|-0---------------------|-



E|-----------------------|-----------------------|-
B|-----------------------|-----------------------|-
G|-----------------------|-----------------------|-
D|---------0-2-0---------|---------0-2-0---------|-
A|---1/2-2-------1/2-1/2-|---1/2-2-------1/2-1/2-|-
E|-0---------------------|-0---------------------|-


verse 2
E|-----------------|-----------------|-----------------|-
B|-----------------|-----------------|-----------------|-
G|-----------------|-------9-------7-|-------5-------3-|-
D|-------0-2-0-----|-----9-------7---|-----5-------3---|-
A|---2-2-------2-2-|---7-------5-----|---3-------2-----|-
E|-0---------------|-0-------0-------|-0-------0-------|-



E|-----------------------|-----------------------|-----------------------|-
B|-----------------------|-----------------------|-----------------------|-
G|-----------------------|-----------------------|-----------------------|-
D|---------0-2-0---------|---------0-2-0---------|---------0-2-0---------|-
A|---1/2-2-------1/2-1/2-|---1/2-2-------1/2-1/2-|---1/2-2-------1/2-1/2-|-
E|-0---------------------|-0---------------------|-0---------------------|-



E|-----------------------|-----------------------|-
B|-----------------------|-----------------------|-
G|-----------------------|-----------------------|-
D|---------0-2-0---------|---------0-2-0---------|-
A|---1/2-2-------1/2-1/2-|---1/2-2-------1/2-1/2-|-
E|-0---------------------|-0---------------------|-


chorus
E|-1-1-----1-------|-1-1-----1-------|-----------------|-----------------|-
B|-1---1-----1-----|-1---1-----1-----|-----------------|-----------------|-
G|-1-----1---------|-1-----1---------|-------9-------7-|-------5-------4-|-
D|-1---------------|-1---------------|-----9-------7---|-----5-------4---|-
A|-1-----------1---|-1-----------1---|---7-------5-----|---3-------2-----|-
E|-1-------------1-|-1-------------1-|-0-------0-------|-0-------0-------|-



E|-----------------|-----------------|-----------------------|-----------------------|-
B|-----------------|-----------------|-----------------------|-----------------------|-
G|-------9-------7-|-------5-------4-|-----------------------|-----------------------|-
D|-----9-------7---|-----5-------4---|---------0-2-0---------|---------0-2-0---------|-
A|---7-------5-----|---3-------2-----|---1/2-2-------1/2-1/2-|---1/2-2-------1/2-1/2-|-
E|-0-------0-------|-0-------0-------|-0---------------------|-0---------------------|-



E|-----------------------|-----------------------|-
B|-----------------------|-----------------------|-
G|-----------------------|-----------------------|-
D|---------0-2-0---------|---------0-2-0---------|-
A|---1/2-2-------1/2-1/2-|---1/2-2-------1/2-1/2-|-
E|-0---------------------|-0---------------------|-


interlude
E|---6---------------|---6---------7-5-|---5---------5-7-|---6-------------|---------------------|-
B|-----7---8-5-------|-----7---8-5-----|-----7---8-5-----|-----7-------5-4-|---------------------|-
G|-0-----7-----3-4-5-|-0-----7---------|-0-----7---------|-0-----7-5-5-----|---------------------|-
D|-------------------|-----------------|-----------------|-----------------|-------0-2-0---------|-
A|-------------------|-----------------|-----------------|-----------------|---2-2-------2-2-----|-
E|-------------------|-----------------|-----------------|-----------------|-0---------------0---|-



E|---5---5-6-5-----|---5---5-6-5-----|---5---5h6p5-----|---5---6-6-5-----|---------------------|-
B|-----6-----------|-----6-------7-5-|-----6-----------|-----6-------5-4-|---------------------|-
G|-------------7-5-|-----------------|-----------------|-----------------|---------------------|-
D|-0---------------|-0---------------|-0-----------7-5-|-0---------------|-------0-2-0---------|-
A|-----------------|-----------------|-----------------|-----------------|---2-2-------2-2-----|-
E|-----------------|-----------------|-----------------|-----------------|-0---------------0---|-



E|---6-6-----------|---6-6-----------|---6-6-----------|---6-5-----------|---------------------|-
B|-------7-8-5---5-|-------7-9-6-----|-------8-5---5---|---------7---5-4-|---------------------|-
G|-------------7---|---------------6-|-----------7---6-|-------7---7-----|---------------------|-
D|-0---------------|-0-----------8---|-0---------------|-0---------------|-------0-2-0---------|-
A|-----------------|-----------------|-----------------|-----------------|---2-2-------2-2-----|-
E|-----------------|-----------------|-----------------|-----------------|-0---------------0---|-



E|---6-3-2---------|---6-3-2---------|---6-3-2---------|---6-3-2-----------|---------------------|-
B|-----------5-----|---------7-5-----|-----------------|-------------5-5-4-|---------------------|-
G|---------7-------|-------------5-7-|-----------7---5-|-------------------|---------------------|-
D|-0-----------7-5-|-0---------------|-0-------5---7---|-0-------9-7-------|-------0-2-0---------|-
A|-----------------|-----------------|-----------------|-------------------|---2-2-------2-2-----|-
E|-----------------|-----------------|-----------------|-------------------|-0---------------0---|-


guitar solo
E|-16p12p0-16p12p0-16p12p0-16p12p0-16p12p0-16p12p0-16p12p0-16p12p0-|-
B|-----------------------------------------------------------------|-
G|-----------------------------------------------------------------|-
D|-----------------------------------------------------------------|-
A|-----------------------------------------------------------------|-
E|-----------------------------------------------------------------|-



E|-17p12p0-17p12p0-17p12p0-17p12p0-17p12p0-17p12p0-17p12p0-17p12p0-|-
B|-----------------------------------------------------------------|-
G|-----------------------------------------------------------------|-
D|-----------------------------------------------------------------|-
A|-----------------------------------------------------------------|-
E|-----------------------------------------------------------------|-



E|-16p12p0-16p12p0-16p12p0-16p12p0-16p12p0-16p12p0-16p12p0-16p12p0-|-
B|-----------------------------------------------------------------|-
G|-----------------------------------------------------------------|-
D|-----------------------------------------------------------------|-
A|-----------------------------------------------------------------|-
E|-----------------------------------------------------------------|-



E|-15p12p0-15p12p0-15p12p0-15p12p0-15p12p0-15p12p0-15p12p0-15p12p0-|-
B|-----------------------------------------------------------------|-
G|-----------------------------------------------------------------|-
D|-----------------------------------------------------------------|-
A|-----------------------------------------------------------------|-
E|-----------------------------------------------------------------|-



E|----13-15-13----13-15-13----13-15-13----13-15-13----13-15-13----13-15-13----13-15-13----13-15-|---
B|-15----------15----------15----------15----------15----------15----------15----------15-------|---
G|----------------------------------------------------------------------------------------------|---
D|----------------------------------------------------------------------------------------------|---
A|----------------------------------------------------------------------------------------------|---
E|----------------------------------------------------------------------------------------------|---



E|----14-16-14----14-16-14----14-16-14----14-16-14----14-16-14----14-16-14----14-16-14----14-16-|-
B|-16----------16----------16----------16----------16----------16----------16----------16-------|-
G|----------------------------------------------------------------------------------------------|-
D|----------------------------------------------------------------------------------------------|-
A|----------------------------------------------------------------------------------------------|-
E|----------------------------------------------------------------------------------------------|-



E|----15-17-15----15-17-15----15-17-15----15-17-15----15-17-15----15-17-15----15-17-15----15-17-|-
B|-17----------17----------17----------17----------17----------17----------17----------17-------|-
G|----------------------------------------------------------------------------------------------|-
D|----------------------------------------------------------------------------------------------|-
A|----------------------------------------------------------------------------------------------|-
E|----------------------------------------------------------------------------------------------|-



E|----16-18-16----16-18-16----16-18-16----16-18-16----16-18-16----16-18-16----16-18-16----16-18-|-
B|-18----------18----------18----------18----------18----------18----------18----------18-------|-
G|----------------------------------------------------------------------------------------------|-
D|----------------------------------------------------------------------------------------------|-
A|----------------------------------------------------------------------------------------------|-
E|----------------------------------------------------------------------------------------------|-



E|-21-21-21-21-21-21-21-21-21-21-21-21-21-22-22-22-22-22-22-22-22-22-22-22-22-22-22-22-22-22-22-|-
B|----------------------------------------------------------------------------------------------|-
G|----------------------------------------------------------------------------------------------|-
D|----------------------------------------------------------------------------------------------|-
A|----------------------------------------------------------------------------------------------|-
E|----------------------------------------------------------------------------------------------|-



E|-----------------|-----------------|-----------------|-----------------|-
B|-----------------|-----------------|-----------------|-----------------|-
G|-----------------|-----------------|-----------------|-----------------|-
D|-------0-2-0-----|-------0-2-0-----|-------0-2-0-----|-------0-2-0-----|-
A|---2-2-------2-2-|---2-2-------2-2-|---2-2-------2-2-|---2-2-------2-2-|-
E|-0---------------|-0---------------|-0---------------|-0---------------|-

chorus

E|-1-1-----1-------|-1-1-----1-------|---------------------------------|-
B|-1---1-----1-----|-1---1-----1-----|---------------------------------|-
G|-1-----1---------|-1-----1---------|-------9-------7-------5-------4-|-
D|-1---------------|-1---------------|-----9-------7-------5-------4---|-
A|-1-----------1---|-1-----------1---|---7-------5-------3-------2-----|-
E|-1-------------1-|-1-------------1-|-0-------0-------0-------0-------|-


outro
E|---------------|-----------------|-----------------|-----------------|-
B|---------------|-----------------|-----------------|-----------------|-
G|---------------|-----------------|-----------------|-----------------|-
D|-------0-2-0---|-------0-2-0-----|-------0-2-0-----|-------0-2-0-----|-
A|---2-2-------2-|---2-2-------2-2-|---2-2-------2-2-|---2-2-------2-2-|-
E|-0-------------|-0---------------|-0---------------|-0---------------|-



E|-0----------|-
B|-0----------|-
G|-1----------|-
D|-2----------|-
A|-2----------|-
E|-0----------|-
http://www.guitartabcreator.com
Guitar Tab Creator is intended to store guitar tab created through the tool. It currently does not support in-line text editing. Any text you place in here will be lost. If you need to comment on your tab, please use the "Tab Notes" section located below.