Kelbryn Vangundy

(/) Slide Up  (\) Slide Down  (h) Hammer On  (p) Pull Off  (b) Bend (r) Release (v) Vibrato
E|-------2-------2-|-------3-------0-|-------2-------2-|-------3-------0-|-
B|-----3-------3---|-----0-------2---|-----3-------3---|-----0-------2---|-
G|---4-------4-----|---0-------2-----|---4-------4-----|---0-------2-----|-
D|-4-------4-------|-----------------|-4-------4-------|-----------------|-
A|-----------------|---------0-------|-----------------|---------0-------|-
E|-----------------|-3---------------|-----------------|-3---------------|-



E|-2--2-2-2-2-2-2-|-2--2-2-2-2-2-2-|-3--3-3-3-3-3-3-|-0--0-0-0-0-0-0-|-
B|-3--3-3-3-3-3-3-|-3--3-3-3-3-3-3-|-0--0-0-0-0-0-0-|-2--2-2-2-2-2-2-|-
G|-4--4-4-4-4-4-4-|-4--4-4-4-4-4-4-|-0--0-0-0-0-0-0-|-2--2-2-2-2-2-2-|-
D|-4--4-4-4-4-4-4-|-4--4-4-4-4-4-4-|-0--0-0-0-0-0-0-|-2--2-2-2-2-2-2-|-
A|----------------|----------------|-2--2-2-2-2-2-2-|-0--0-0-0-0-0-0-|-
E|----------------|----------------|-3--3-3-3-3-3-3-|----------------|-



E|-0--0--0--0-|-0-0-0-0-0-0-0-0-|-0-0-0-0-0-0-0-0-|-0-0-0-0-0-0-0-0-|-0-0-0-0-0-0--0-|-
B|-2--2--2--2-|-2-2-2-2-2-2-2-2-|-2-2-2-2-2-2-2-2-|-2-2-2-2-2-2-2-2-|-2-2-2-2-3-2--0-|-
G|-2--2--2--2-|-2-2-2-2-2-2-2-2-|-2-2-2-2-2-2-2-2-|-2-2-2-2-2-2-2-2-|-2-2-2-2-2-2--0-|-
D|-2--2--2--2-|-2-2-2-2-2-2-2-2-|-2-2-2-2-2-2-2-2-|-2-2-2-2-2-2-2-2-|-2-2-2-2-2-2--0-|-
A|-0--0--0--0-|-0-0-0-0-0-0-0-0-|-0-0-0-0-0-0-0-0-|-0-0-0-0-0-0-0-0-|-0-0-0-0-0-0--0-|-
E|------------|-----------------|-----------------|-----------------|----------------|-



E|-2--2-2-2-2-2-|-2--2-2-2-2-2-2-|-3--3-3-3-3-3-3-|-0--0-0-0-0--0-|-
B|-3--3-3-3-3-3-|-3--3-3-3-3-3-3-|-0--0-0-0-0-0-0-|-2--2-2-3-2--0-|-
G|-4--4-4-4-4-4-|-4--4-4-4-4-4-4-|-0--0-0-0-0-0-0-|-2--2-2-2-2--0-|-
D|-4--4-4-4-4-4-|-4--4-4-4-4-4-4-|-0--0-0-0-0-0-0-|-2--2-2-2-2--0-|-
A|--------------|----------------|-2--2-2-2-2-2-2-|-0--0-0-0-0--0-|-
E|--------------|----------------|-3--3-3-3-3-3-3-|---------------|-



E|-0--0--0-0--0-0--0-0-|-0-0--0-0--0-0--0-0-|-0-0------|-|-
B|-2--2--3-2--3-2--3-2-|-3-2--3-2--3-2--3-2-|-3-2------|-|-
G|-2--2--2-2--2-2--2-2-|-2-2--2-2--2-2--2-2-|-2-2------|-|-
D|-2--2--2-2--2-2--2-2-|-2-2--2-2--2-2--2-2-|-2-2--5-5-|-|-
A|-0--0--0-0--0-0--0-0-|-0-0--0-0--0-0--0-0-|-0-0--3-2-|-|-
E|---------------------|--------------------|----------|-|-



E|-2--2-2-2-2-2-2-|-2--2-2-2-2-2-2-|-3--3-3-3-3-3-3-|-0--0-0-0-0--0-|-
B|-3--3-3-3-3-3-3-|-3--3-3-3-3-3-3-|-0--0-0-0-0-0-0-|-2--2-2-3-2--0-|-
G|-4--4-4-4-4-4-4-|-4--4-4-4-4-4-4-|-0--0-0-0-0-0-0-|-2--2-2-2-2--0-|-
D|-4--4-4-4-4-4-4-|-4--4-4-4-4-4-4-|-0--0-0-0-0-0-0-|-2--2-2-2-2--0-|-
A|----------------|----------------|-2--2-2-2-2-2-2-|-0--0-0-0-0--0-|-
E|----------------|----------------|-3--3-3-3-3-3-3-|---------------|-



E|-0--0--0-0--0-0--0-0-|-0-0--0-0--0-0--0-0-|-0-0------|-|-
B|-2--2--3-2--3-2--3-2-|-3-2--3-2--3-2--3-2-|-3-2------|-|-
G|-2--2--2-2--2-2--2-2-|-2-2--2-2--2-2--2-2-|-2-2------|-|-
D|-2--2--2-2--2-2--2-2-|-2-2--2-2--2-2--2-2-|-2-2--5-5-|-|-
A|-0--0--0-0--0-0--0-0-|-0-0--0-0--0-0--0-0-|-0-0--3-2-|-|-
E|---------------------|--------------------|----------|-|-



E|-0--0-0-0-0-0-0-|-0--0-0-0-0-0-0-|-0--0-0-0-0-0-0-|-0--0-0-0-0-0-0-|-
B|-0--0-0-0-0-0-0-|-0--0-0-0-0-0-0-|-0--0-0-0-0-0-0-|-0--0-0-0-0-0-0-|-
G|-2--2-2-2-2-2-2-|-2--2-2-2-2-2-2-|-1--1-1-1-1-1-1-|-1--1-1-1-1-1-1-|-
D|-2--2-2-2-2-2-2-|-2--2-2-2-2-2-2-|-2--2-2-2-2-2-2-|-2--2-2-2-2-2-2-|-
A|-2--2-2-2-2-2-2-|-2--2-2-2-2-2-2-|-2--2-2-2-2-2-2-|-2--2-2-2-2-2-2-|-
E|-0--0-0-0-0-0-0-|-0--0-0-0-0-0-0-|-0--0-0-0-0-0-0-|-0--0-0-0-0-0-0-|-



E|-0--0-0-0-0-0-0-|-0--0-0-0-0-0-0-|-0--0-0-0-0-0-0-|-0--0-0-0-0-0-0-|-
B|-2--2-2-2-2-2-2-|-2--2-2-2-2-2-2-|-3--3-3-3-3-3-3-|-3--3-3-3-3-3-3-|-
G|-2--2-2-2-2-2-2-|-2--2-2-2-2-2-2-|-2--2-2-2-2-2-2-|-2--2-2-2-2-2-2-|-
D|-2--2-2-2-2-2-2-|-2--2-2-2-2-2-2-|-2--2-2-2-2-2-2-|-2--2-2-2-2-2-2-|-
A|-0--0-0-0-0-0-0-|-0--0-0-0-0-0-0-|-0--0-0-0-0-0-0-|-0--0-0-0-0-0-0-|-
E|----------------|----------------|----------------|----------------|-



E|------|------|------|------|------|------|------|-------|-
B|------|------|------|------|------|------|------|-------|-
G|------|------|------|------|------|------|------|-------|-
D|-9----|-7----|-5----|-4----|-9----|-7----|-5----|---5-5-|-
A|-7----|-5----|-3----|-2----|-7----|-5----|-3----|---3-2-|-
E|------|------|------|------|------|------|------|-------|-



E|-2--2-2-2-2-2-2-|-2--2-2-2-2-2-2-|-3--3-3-3-3-3-3-|-0--0-0-0-0--0-|-
B|-3--3-3-3-3-3-3-|-3--3-3-3-3-3-3-|-0--0-0-0-0-0-0-|-2--2-2-3-2--0-|-
G|-4--4-4-4-4-4-4-|-4--4-4-4-4-4-4-|-0--0-0-0-0-0-0-|-2--2-2-2-2--0-|-
D|-4--4-4-4-4-4-4-|-4--4-4-4-4-4-4-|-0--0-0-0-0-0-0-|-2--2-2-2-2--0-|-
A|----------------|----------------|-2--2-2-2-2-2-2-|-0--0-0-0-0--0-|-
E|----------------|----------------|-3--3-3-3-3-3-3-|---------------|-
http://www.guitartabcreator.com
Guitar Tab Creator is intended to store guitar tab created through the tool. It currently does not support in-line text editing. Any text you place in here will be lost. If you need to comment on your tab, please use the "Tab Notes" section located below.