Jesus Rocks

(/) Slide Up  (\) Slide Down  (h) Hammer On  (p) Pull Off  (b) Bend (r) Release (v) Vibrato
E|--------------------------------|-
B|--------------------------------|-
G|--------------7-6-5-4-----7-----|-
D|-4-4--4-4--2----------5-4-------|-
A|-4-4--4-4--2----------------5-4-|-
E|-2-2--2-2--0--------------------|-



E|---------------|-------------|-
B|---------------|-------------|-
G|---------------|-------------|-
D|-4-5--4-5--2---|-2-----------|-
A|-4-5--4-5--2---|-2-----------|-
E|-2-3--2-3--0---|-0-----------|-



E|-----------------|-----------------|----------|-----------|---
B|-----------------|-----------------|----------|-----------|---
G|-----------------|---------------2-|----------|-----------|---
D|-----------------|---------------2-|-2--------|-2---------|---
A|-2-5-4-3-2-5-4-3-|-2-5-4-3-2-5-4-0-|-2--------|-2---------|---
E|-0-3-2-1-0-3-2-1-|-0-3-2-1-0-3-1---|-0--------|-0---------|---



E|-------------------------|-------------------------|-
B|-8-7-7---7-7-8-7-7-------|-8-7-7---7-7-8-7-7-------|-
G|-------9-----------9-7---|-------9-------------7-9-|-
D|-----------------------9-|-------------------9-----|-
A|-------------------------|-------------------------|-
E|-------------------------|-------------------------|-



E|-----------------------|------------------------|-
B|-----------------------|------------------------|-
G|-----------------------|------------------------|-
D|-----------------------|------------------------|-
A|-2----5-5-5-2----7-7-7-|-2----9-9-9-7-9-7-5-7-5-|-
E|-0--0-3-3-3-0--0-5-5-5-|-0--0-7-7-7-5-7-5-3-5-3-|-



E|-----
B|-----
G|-----
D|-----
A|-----
E|-----
http://www.guitartabcreator.com
Guitar Tab Creator is intended to store guitar tab created through the tool. It currently does not support in-line text editing. Any text you place in here will be lost. If you need to comment on your tab, please use the "Tab Notes" section located below.