Inhale the Fire solo/wah

(/) Slide Up  (\) Slide Down  (h) Hammer On  (p) Pull Off  (b) Bend (r) Release (v) Vibrato


E|--------------------------------------------------------|
B|--------------------------------------------6---6---7---|
G|-2-4-2-0-0-3-0-4-0-5-0-6-0-7-0-7--0-8-0-9-0---0---0---0-|
D|--------------------------------------------------------|
A|--------------------------------------------------------|
E|--------------------------------------------------------|



E|-------------------------14-|
B|-8---9---10---11---12-15----|
G|---0---0----0----0----------|
D|----------------------------|
A|----------------------------|
E|----------------------------|



E|-------15-17-17-15-14----14-19-15-17-15-14----14-19-15-17-15-14----14-19-15-17-15-|
B|-17-15----------------17-------------------17-------------------17----------------|
G|----------------------------------------------------------------------------------|
D|----------------------------------------------------------------------------------|
A|----------------------------------------------------------------------------------|
E|----------------------------------------------------------------------------------|



E|-19-17-15----17-15-------15----------------------|
B|----------19-------19-17----17-16-15-17-17-15-15-|
G|-------------------------------------------------|
D|-------------------------------------------------|
A|-------------------------------------------------|
E|-------------------------------------------------|



E|-18-16-14----16-14-----15-12----12---------16-|
B|----------17-------0-0-------14----14-12-0----|
G|----------------------------------------------|
D|----------------------------------------------|
A|----------------------------------------------|
E|----------------------------------------------|



E|-14-12-15-12----14-12p11\9-12-9----9-------13-10\7-10-7-9-6-8-6-5---------|
B|-------------15-----------------11---11-12------------------------8-7-5---|
G|------------------------------------------------------------------------6-|
D|--------------------------------------------------------------------------|
A|--------------------------------------------------------------------------|
E|--------------------------------------------------------------------------|



E|---------------------------2-0-0-3-2-3-4-5-4-4-|
B|-5-------6p4-7p5---5h7-------------------------|
G|---7---0---------0-----0-0---------------------|
D|-----7-----------------------------------------|
A|-----------------------------------------------|
E|-----------------------------------------------|


== == ==
E|-5-4-6-7-7-6-8-7-7-7-9-8-10-10-11-11-12-11-13-12/--22--22\-|
B|----------------------------------------------==---==--==--|
G|-----------------------------------------------------------|
D|-----------------------------------------------------------|
A|-----------------------------------------------------------|
E|-----------------------------------------------------------|
http://www.guitartabcreator.com
Guitar Tab Creator is intended to store guitar tab created through the tool. It currently does not support in-line text editing. Any text you place in here will be lost. If you need to comment on your tab, please use the "Tab Notes" section located below.