Inhale the Fire

(/) Slide Up  (\) Slide Down  (h) Hammer On  (p) Pull Off  (b) Bend (r) Release (v) Vibrato
E|-----------------------------|-----------------------------|-
B|-----------------------------|-----------------------------|-
G|-----------------------------|-----------------------------|-
D|-----------------------------|-----------------------------|-
A|-----------------------------|-----------------------------|-
E|-0--0--0-0-0-0-0--0--0-0-0-0-|-0--0--0-0-0-0-0--0--0-0-0-0-|-



E|---------------------------------|---------------------------------|-
B|---------------------------------|---------------------------------|-
G|---------------------------------|---------------------------------|-
D|-2-------------------------------|-2-------------------------------|-
A|-2-------------------------------|-2-------------------------------|-
E|-0-0-0-0-0-0-0-0-0-0-0-0-0-0-0-0-|-0-0-0-0-0-0-0-0-0-0-0-0-0-0-0-0-|-



E|---------------------------------|---------------------------------|-
B|---------------------------------|---------------------------------|-
G|---------------------------------|---------------------------------|-
D|-------0-----2-0---3-----4-------|-------0-----2-0---3-----4-------|-
A|-2-2-2---2-2-----2---2-2---2-----|-2-2-2---2-2-----2---2-2---2-----|-
E|-----------------------------0-0-|-----------------------------0-0-|-



E|---------------------------------|-------------------------------------------------|-
B|---------------------------------|-------------------------------------------------|-
G|---------------------------------|-------------------------------------------------|-
D|---------------------------------|-------------------------------------------------|-
A|---------------------------------|-13-13-13-13-12-12-12-12-11-11-11-11-10-10-10-10-|-
E|-0-0-0-0-0-0-0-0-0-0-0-0-0-0-0-0-|-0--0--0--0--0--0--0--0--0--0--0--0--0--0--0--0--|-



E|---------------------------------|---------------------------------|-
B|---------------------------------|---------------------------------|-
G|---------------------------------|---------------------------------|-
D|-------0-----2-0---3-----4-------|-------0-----2-0---3-------------|-
A|-2-2-2---2-2-----2---2-2---2-----|-2-2-2---2-2-----2---2-2-2-1-0---|-
E|-----------------------------0-0-|-------------------------------0-|-



E|---------------------------------|---------------------------------|-
B|---------------------------------|---------------------------------|-
G|---------------------------------|---------------------------------|-
D|-------2-------3-------2-------3-|-------0-----2-0---3-----4-------|-
A|-------2-------3-------2-------3-|-2-2-2---2-2-----2---2-2---2-----|-
E|-0-0-0-0-0-0-0-1-0-0-0-0-0-0-0-1-|-----------------------------0-0-|-



E|---------------------------------|---------------------------------|-
B|---------------------------------|---------------------------------|-
G|---------------------------------|---------------------------------|-
D|-------2-------3-------2-------3-|-------0-----2-0---3-----4-------|-
A|-------2-------3-------2-------3-|-2-2-2---2-2-----2---2-2---2-----|-
E|-0-0-0-0-0-0-0-1-0-0-0-0-0-0-0-1-|-----------------------------0-0-|-



E|---------------------------------|---------------------------------|-
B|---------------------------------|---------------------------------|-
G|---------------------------------|---------------------------------|-
D|-------0-----2-0---3-----4-------|---------------------------------|-
A|-2-2-2---2-2-----2---2-2---2-----|---------------------------------|-
E|-----------------------------0-0-|-0-0-0-0-0-0-0-0-2-2-2-2-2-2-2-2-|-



E|------------------------------|-------------------------------|-
B|------------------------------|-------------------------------|-
G|------------------------------|-9--9--7-5-4-2--2-2-2------4-2-|-
D|-2------5-5-5-7--7-7-9--9-9-9-|-9--9--7-5-4-2--2-2-2------4-2-|-
A|-2------5-5-5-7--7-7-9--9-9-9-|-7--7--5-3-2-0--0-0-0--0-0-2-0-|-
E|-0--0-0-3-3-3-5--5-5-7--7-7-7-|-------------------------------|-



E|------------------------------|--------------------------|-
B|------------------------------|--------------------------|-
G|------------------------------|-9--9--7-5-4--9--9--9-5-4-|-
D|-2------5-5-5-7--7-7-9--9-9-9-|-9--9--7-5-4--9--9--9-5-4-|-
A|-2------5-5-5-7--7-7-9--9-9-9-|-7--7--5-3-2--7--7--7-3-2-|-
E|-0--0-0-3-3-3-5--5-5-7--7-7-7-|--------------------------|-



E|---------------------------------|---------------------------------|-
B|---------------------------------|---------------------------------|-
G|---------------------------------|---------------------------------|-
D|-------0-----2-0---3-----4-------|-------0-----2-0---3-------------|-
A|-2-2-2---2-2-----2---2-2---2-----|-2-2-2---2-2-----2---2-2-2-1-0---|-
E|-----------------------------0-0-|-------------------------------0-|-



E|---------------------------------|---------------------------------|-
B|---------------------------------|---------------------------------|-
G|---------------------------------|---------------------------------|-
D|-------2-------3-------2-------3-|-------0-----2-0---3-----4-------|-
A|-------2-------3-------2-------3-|-2-2-2---2-2-----2---2-2---2-----|-
E|-0-0-0-0-0-0-0-1-0-0-0-0-0-0-0-1-|-----------------------------0-0-|-
http://www.guitartabcreator.com
Guitar Tab Creator is intended to store guitar tab created through the tool. It currently does not support in-line text editing. Any text you place in here will be lost. If you need to comment on your tab, please use the "Tab Notes" section located below.