iDie interlude

(/) Slide Up  (\) Slide Down  (h) Hammer On  (p) Pull Off  (b) Bend (r) Release (v) Vibrato


E|----------------|----------------|---------------|-----------------|-------------|-------------|-
B|----------------|----------------|---------------|-----------------|-------------|-------------|-
G|-------0------0-|-------0------0-|-------0-----0-|-----0-----0-----|----------3--|----------0--|-
D|-----2------2---|-----2------2---|-----5-----5---|---5-----4---3-2-|-1-----------|--------2----|-
A|---1------1-----|---1------1-----|---4-----4-----|-4-----3-----2-1-|-0-----------|------1------|-
E|-0--------------|-0--------------|-0-------------|-----------------|----3-2-1----|-1--0--------|-



E|---------------|-----------------|-
B|---------------|-----------------|-
G|-------0-----0-|-3-1-0---0-------|-
D|-----5-----5---|-------1---------|-
A|---4-----4-----|-----------3-1---|-
E|-0-------------|---------------1-|-
http://www.guitartabcreator.com
Guitar Tab Creator is intended to store guitar tab created through the tool. It currently does not support in-line text editing. Any text you place in here will be lost. If you need to comment on your tab, please use the "Tab Notes" section located below.