I Stand Alone

(/) Slide Up  (\) Slide Down  (h) Hammer On  (p) Pull Off  (b) Bend (r) Release (v) Vibrato


E|-------------------------|-------------3-----------|-
B|-3-----3---3-5-----5-----|-2-----2---3---1---1-----|-
G|---4-----4-----4-------4-|---3-----3-------2---2---|-
D|-----5-----------5---5---|-----4-----------------3-|-
A|-------------------------|-------------------------|-
E|-------------------------|-------------------------|-



E|-------------------------|-------------------------|-
B|-0-----0-----1-----3-----|-0-----0-----1-----3-5---|-
G|---2-----2-----2-----2---|---2-----2-----2---------|-
D|-----2-----2-----2-----2-|-----2-----2-----2-----2-|-
A|-------------------------|-------------------------|-
E|-------------------------|-------------------------|-



E|-7-----7-------------5---|-7-----7-------------5---|-
B|-------------7-8---------|-------------7-8---------|-
G|---6-----6-------6-----5-|---6-----6-------6-----5-|-
D|-----7-----7-------7-----|-----7-----7-------7-----|-
A|-------------------------|-------------------------|-
E|-------------------------|-------------------------|-
http://www.guitartabcreator.com
Guitar Tab Creator is intended to store guitar tab created through the tool. It currently does not support in-line text editing. Any text you place in here will be lost. If you need to comment on your tab, please use the "Tab Notes" section located below.