The Hidden Cave of the Death Beast

(/) Slide Up  (\) Slide Down  (h) Hammer On  (p) Pull Off  (b) Bend (r) Release (v) Vibrato
intro
E|------|------|------|----------|--------|-------|-----------|------|-
B|------|------|------|----------|--------|-------|-----------|------|-
G|------|------|------|----------|--------|-------|-----------|------|-2x
D|------|------|------|----------|--------|-------|-----------|-2----|-
A|-2----|-5----|-7----|----------|--2---2-|-5---5-|-7---------|-2----|-
E|-0----|-3----|-5----|-3p2p0----|--0---0-|-3---3-|-5---2h3p2-|-0----|-



E|--------------------------|--------------------------|-
B|-12h13-0--12h13-0-12h13-0-|-12h13-0--12h13-0-12h13-0-|-
G|--------------------------|--------------------------|-4x
D|--------------------------|--------------------------|-
A|--------------------------|--------------------------|-
E|--------------------------|--------------------------|-



E|----------------------------|---------------------------|-
B|----------------------------|---------------------------|-
G|----------------------------|---------------------------|-4x
D|----------------------------|---------------------------|-
A|-----2------2------2------2-|-----2------2------3-4-5-6-|-
E|-0-0-0--0-0-0--0-0-0--0-0-0-|-0-0-0--0-0-0--0-0-1-2-3-4-|-



E|----------------------------|---------------------------------|-
B|----------------------------|---------------------------------|-
G|----------------------------|---------------------------------|-4x
D|----------------------------|---------------------------------|-
A|-----2------2------2------2-|---------------------------------|-
E|-3p2-0--3p2-0--3p2-0--3p2-0-|-0-0-0-0-0-0-0-0-0-0-0-0-0-0-0-0-|-



E|------|------------|-
B|------|------------|-
G|------|------------|-
D|-2----|------------|-
A|-2----|------------|-
E|-0----|----12p10-5-|-


verse
E|----------------------------|---------------------------|-
B|----------------------------|---------------------------|-
G|----------------------------|---------------------------|-4x
D|----------------------------|---------------------------|-
A|-----3------3------3------3-|-----3------3------4-5-6-7-|-
E|-1-1-1--1-1-1--1-1-1--1-1-1-|-1-1-1--1-1-1--1-1-2-3-4-5-|-


pre-chorus
E|-----------------------------|-----------------------------|-------------------------|-
B|-----------------------------|-----------------------------|-------------------------|-
G|-----------------------------|-----------------------------|-------------------------|-
D|-----------------------------|-----------------------------|-------------------------|-
A|-----4------5------6------7--|-----8------9------10-----11-|-------12----------------|-
E|-2-2-2--3-3-3--4-4-4--5-5-5--|-6-6-6--7-7-7--8-8-8--9-9-9--|-10-10-10-12b13-12b13-19\|-


chorus
E|-------------------------------------|-------------------------------------|-
B|-------------------------------------|-------------------------------------|-
G|-------------------------------------|-------------------------------------|-
D|-------------------------------------|-------------------------------------|-
A|-------------------------------------|-------------------------------------|-
E|-0-0-12-9-0-0-12-8-0-0-12-9-0-0-12-7-|-0-0-12-9-0-0-12-8-0-0-12-9-0-0-12-7-|-



E|--------------------------|--------------------------|-------------------|-
B|--------------------------|--------------------------|-------------------|-
G|--------------------------|--------------------------|-------------------|-
D|-11--11--11-11--11--11-11-|-11--11--11-11--11--11-11-|-------------------|-
A|-13--13--13-13--13--13-13-|-13--13--13-13--13--13-13-|-------------------|-
E|-12--12--12-12--12--12-12-|-12--12--12-12--12--12-12-|-12--11-10-9-8-7-6-|-



E|----------------------------|---------------------------|-
B|----------------------------|---------------------------|-
G|----------------------------|---------------------------|-4x
D|----------------------------|---------------------------|-
A|-----2------2------2------2-|-----2------2------3-4-5-6-|-
E|-0-0-0--0-0-0--0-0-0--0-0-0-|-0-0-0--0-0-0--0-0-1-2-3-4-|-


interlude
E|-----------------------------------|-----------------------------------|-
B|-----------------------------------|-----------------------------------|-
G|-------------------------------5h7-|---------------------------5h7-----|-4x
D|---------------------------5h7-----|-------------------------------5h7-|-
A|-----2------2----------5h7---------|-----5------2----------5h7---------|-
E|-0-0-0--0-0-0--0-0-5h7-------------|-0-0-3--0-0-0--0-0-5h7-------------|-



E|---------------------------------|-------------------------------|-
B|---------------------------------|-------------------------------|-
G|---------------------------------|-------------------------------|-
D|---------------------------------|-------------------------------|-
A|---------------------------------|-------------------------------|-
E|-0-0-0-0-0-0-0-0-0-0-0-0-0-0-0-0-|-0-0-0-0-0-0-0-0-0-0-0-0-0-0-0-|-


solo/heavy wah
E|-----------|-------------------|-----------|-------------|---------|----------|-------------|-
B|-----------|-------------------|-----------|-------------|---------|----------|-------------|-
G|-4-2--0--1-|-3-6-8-6-6-8-2-4-5-|-4-2--0--1-|-6-7--7-8-9--|-9-8-7-6-|-1-1--1-1-|----12-14-12-|-
D|-----------|-------------------|-----------|-------------|---------|----------|-14----------|-
A|-----------|-------------------|-----------|-------------|---------|----------|-------------|-
E|-----------|-------------------|-----------|-------------|---------|----------|-------------|-



E|-------------11-14-15-14-------------11-14-15-14-|-
B|-11-14-15-14-------------11-14-15-14-------------|-
G|-------------------------------------------------|-
D|-------------------------------------------------|-
A|-------------------------------------------------|-
E|-------------------------------------------------|-



E|-------------12-15-16-15-------------12-15-16-15-|-
B|-12-15-16-15-------------12-15-16-15-------------|-
G|-------------------------------------------------|-
D|-------------------------------------------------|-
A|-------------------------------------------------|-
E|-------------------------------------------------|-



E|-------------13-16-17-16-------------13-16-17-16-|-
B|-13-16-17-16-------------13-16-17-16-------------|-
G|-------------------------------------------------|-
D|-------------------------------------------------|-
A|-------------------------------------------------|-
E|-------------------------------------------------|-



E|-------------14-17-18-17-------------14-17-18-17-|-
B|-14-17-18-17-------------14-17-18-17-------------|-
G|-------------------------------------------------|-
D|-------------------------------------------------|-
A|-------------------------------------------------|-
E|-------------------------------------------------|-



E|-------------15-18-19-18-------------15-18-19-18-|-
B|-15-18-19-18-------------15-18-19-18-------------|-
G|-------------------------------------------------|-
D|-------------------------------------------------|-
A|-------------------------------------------------|-
E|-------------------------------------------------|-



E|-------------16-19-20-19-------------16-19-20-19-|-
B|-16-19-20-19-------------16-19-20-19-------------|-
G|-------------------------------------------------|-
D|-------------------------------------------------|-
A|-------------------------------------------------|-
E|-------------------------------------------------|-



E|-------------17-20-21-20-------------17-20-21-20-|-
B|-17-20-21-20-------------17-20-21-20-------------|-
G|-------------------------------------------------|-
D|-------------------------------------------------|-
A|-------------------------------------------------|-
E|-------------------------------------------------|-



E|-21b21b21b21b21b21b21b21b21b21b21b21b21b21b21b21b|-21\|-
B|-------------------------------------------------|----|-
G|-------------------------------------------------|----|-
D|-------------------------------------------------|----|-
A|-------------------------------------------------|----|-
E|-------------------------------------------------|----|-



E|----------------------------|----------------------------|-
B|----------------------------|----------------------------|-
G|----------------------------|----------------------------|-4x
D|----------------------------|----------------------------|-
A|-----5------5------3------2-|-----5------5------3------2-|-
E|-0-0-3--0-0-3--0-0-1--0-0-0-|-0-0-3--0-0-3--0-0-1--0-0-0-|-



E|------|----------|---------------------------------|---------------------------------|-
B|------|----------|---------------------------------|---------------------------------|-
G|------|----------|---------------------------------|---------------------------------|-
D|-9----|-----8----|---------------------------------|---------------------------------|-
A|-7----|---6------|---------------------------------|---------------------------------|-
E|-0----|-0--------|-0-0-0-0-0-0-0-0-0-0-0-0-0-0-0-0-|-0-0-0-0-0-0-0-0-0-0-0-0-0-0-0-0-|-


chorus
E|-------------------------------------|-----------------------------------|-
B|-------------------------------------|-----------------------------------|-
G|-------------------------------------|-----------------------------------|-
D|-------------------------------------|-----------------------------------|-
A|-------------------------------------|-----------------------------------|-
E|-0-0-12-9-0-0-12-8-0-0-12-9-0-0-12-7-|-0-0-12-9-0-0-12-8-0-0-12-9-0-12-7-|-



E|--------------------------|--------------------------|--------------------------|-
B|--------------------------|--------------------------|-12h13-0--12h13-0-12h13-0-|-
G|--------------------------|--------------------------|--------------------------|-
D|-11--11--11-11--11--11-11-|-11--11--11-11--11--11-11-|--------------------------|-
A|-13--13--13-13--13--13-13-|-13--13--13-13--13--13-13-|--------------------------|-
E|-12--12--12-12--12--12-12-|-12--12--12-12--12--12-12-|--------------------------|-



E|---------------------------------|-------------------------------|-
B|---------------------------------|-------------------------------|-
G|---------------------------------|-------------------------------|-
D|---------------------------------|-------------------------------|-
A|---------------------------------|-------------------------------|-
E|-0-0-0-0-0-0-0-0-0-0-0-0-0-0-0-0-|-0-0-0-0-0-0-0-0-0-0-0-0-0-0-0-|-



E|---------------------------------|-------------------------------|---
B|---------------------------------|-------------------------------|---
G|---------------------------------|-------------------------------|---
D|---------------------------------|-------------------------------|---
A|---------------------------------|-------------------------------|---
E|-0-0-0-0-0-0-0-0-0-0-0-0-0-0-0-0-|-0-0-0-0-0-0-0-0-0-0-0-0-0-0-0-|---



E|-----------|-----------|--
B|-----------|-----------|--
G|-----------|-----------|--
D|-----------|-----------|--
A|--2--------|--------2--|--
E|--0--------|--------0--|--
http://www.guitartabcreator.com
Guitar Tab Creator is intended to store guitar tab created through the tool. It currently does not support in-line text editing. Any text you place in here will be lost. If you need to comment on your tab, please use the "Tab Notes" section located below.