The Golden City of Heaven

(/) Slide Up  (\) Slide Down  (h) Hammer On  (p) Pull Off  (b) Bend (r) Release (v) Vibrato
E|-----------------|-----------------|-----------------|-----------------|-
B|-----------------|-----------------|-----------------|-----------------|-
G|-----------------|-----------------|-----------------|-----------------|-14x
D|-9-8-9-8-9-8-9-8-|-9-8-9-8-9-8-9-8-|-9-8-9-8-9-8-9-8-|-9-8-9-8-9-8-9-8-|-
A|-7-6-7-6-7-6-7-6-|-7-6-7-6-7-6-7-6-|-7-6-7-6-7-6-7-6-|-7-6-7-6-7-6-7-6-|-
E|-0-0-0-0-0-0-0-0-|-0-0-0-0-0-0-0-0-|-0-0-0-0-0-0-0-0-|-0-0-0-0-0-0-0-0-|-



E|--------------|--------------|--------------|--------------|-
B|--------------|--------------|--------------|--------------|-
G|--------------|--------------|--------------|--------------|-2x
D|--------------|--------------|--------------|--------------|-
A|-3-2-2--8-7-2-|-3-2-2--8-7-2-|-3-2-2--8-7-2-|-3-2-2--8-7-2-|-
E|-1-0-0--6-5-0-|-1-0-0--6-5-0-|-1-0-0--6-5-0-|-1-0-0--6-5-0-|-



E|----------------|----------------|----------------|--------------------|-
B|----------------|----------------|----------------|--------------------|-
G|----------------|----------------|----------------|--------------------|-4x
D|----------------|----------------|----------------|--------------------|-
A|-9--0-0-9-0-0-9-|--0-0-9-0-0-9-0-|-9--0-0-9-0-0-9-|--0-0-9-0-0-9-------|-
E|-7--0-0-7-0-0-7-|--0-0-7-0-0-7-0-|-5--0-0-5-0-0-6-|--0-0-6-0-0-6-6/7/8-|-



E|------------------|------------------|-------------------|-----------------|-
B|------------------|------------------|-------------------|-----------------|-
G|-------2--------4-|-------5----4---2-|-------2--------0--|-0-0-0h2-0h2-0h2-|-4x
D|-2-2-2----2-2-2---|-2-2-2----2---2---|-2-2-2----2-2-2----|-----------------|-
A|------------------|------------------|-------------------|-----------------|-
E|------------------|------------------|-------------------|-----------------|-



E|----------------|----------------|----------------|--------------------|-
B|----------------|----------------|----------------|--------------------|-
G|----------------|----------------|----------------|--------------------|-4x
D|----------------|----------------|----------------|--------------------|-
A|-9--0-0-9-0-0-9-|--0-0-9-0-0-9-0-|-9--0-0-9-0-0-9-|--0-0-9-0-0-9-------|-
E|-7--0-0-7-0-0-7-|--0-0-7-0-0-7-0-|-5--0-0-5-0-0-6-|--0-0-6-0-0-6-6/7/8-|-



E|-------------------|------------------|-------------------|-------------------------|-
B|-------------------|------------------|-------------------|-------------------------|-
G|-------------------|------------------|-------------------|-------------------------|-2x
D|-------------------|------------------|-------------------|-------------------------|-
A|-14--0-0-14-0-0-14-|--0-0-14-0-0-14-0-|-14--0-0-14-0-0-14-|--0-0-14-0-0-14----------|-
E|-12--0-0-12-0-0-12-|--0-0-12-0-0-12-0-|-10--0-0-10-0-0-11-|--0-0-11-0-0-11-11/12/13-|-



E|----------------|----------------|----------------|--------------------|-
B|----------------|----------------|----------------|--------------------|-
G|-4------4-----4-|------4-----4---|-4------4-----4-|------4-----4-------|-2x
D|-2------2-----2-|------2-----2---|-0------0-----1-|------1-----1-------|-
A|-9--0-0-9-0-0-9-|--0-0-9-0-0-9-0-|-9--0-0-9-0-0-9-|--0-0-9-0-0-9-------|-
E|-7--0-0-7-0-0-7-|--0-0-7-0-0-7-0-|-5--0-0-5-0-0-6-|--0-0-6-0-0-6-6/7/8-|-



E|------------------|------------------|------------------|-----------------|-
B|------------------|------------------|------------------|-----------------|-
G|-------2--------4-|-------5----4---2-|-------2--------0-|-0-0-0h2-0h2-0h2-|-4x
D|-2-2-2----2-2-2---|-2-2-2----2---2---|-2-2-2----2-2-2---|-----------------|-
A|------------------|------------------|------------------|-----------------|-
E|------------------|------------------|------------------|-----------------|-



E|----------------------------|----------------------------|-
B|----------------------------|----------------------------|-
G|----------------------------|----------------------------|-4x
D|----------------------------|----------------------------|-
A|-2-2-2--2-2-5--2-2-2--2-2-2-|-2-2-2--2-2-7--2-2-2--2-2-2-|-
E|-0-0-0--0-0-3--0-0-0--0-0-0-|-0-0-0--0-0-5--0-0-0--0-0-0-|-


solo/wah
E|----12h14p12----12h14p12----12h14p12----12h14p12-|----12h14p12----12h14p12----12h14p12-----|---
B|-15----------15----------15----------15----------|-15----------15----------15----------15--|---
G|-------------------------------------------------|-----------------------------------------|---
D|-------------------------------------------------|-----------------------------------------|---
A|-------------------------------------------------|-----------------------------------------|---
E|-------------------------------------------------|-----------------------------------------|---



E|----11h12p11----11h12p11----11h12p11----11h12p11-|----11h12p11----11h12p11----11h12p11-----|-
B|-15----------15----------15----------15----------|-15----------15----------15----------15--|-
G|-------------------------------------------------|-----------------------------------------|-
D|-------------------------------------------------|-----------------------------------------|-
A|-------------------------------------------------|-----------------------------------------|-
E|-------------------------------------------------|-----------------------------------------|-



E|----15h18p15----15h18p15----15h18p15----15h18p15-|----15h18p15----15h18p15----15h18p15-----|-
B|-18----------18----------18----------18----------|-18----------18----------18----------18--|-
G|-------------------------------------------------|-----------------------------------------|-
D|-------------------------------------------------|-----------------------------------------|-
A|-------------------------------------------------|-----------------------------------------|-
E|-------------------------------------------------|-----------------------------------------|-



E|----17h20p17----17h20p17----17h20p17----17h20p17-|----17h20p17----17h20p17----17h20p17-----|-
B|-20----------20----------20----------20----------|-20----------20----------20----------21--|-
G|-------------------------------------------------|-----------------------------------------|-
D|-------------------------------------------------|-----------------------------------------|-
A|-------------------------------------------------|-----------------------------------------|-
E|-------------------------------------------------|-----------------------------------------|-



E|---------------------------------|-------------------------|-
B|---5h7p5---5h7p5---7h9p7---7h9p7-|---9h10p9---7h9p7---5h7--|-
G|-7-------7-------7-------7-------|-7--------7-------7------|-
D|---------------------------------|-------------------------|-
A|---------------------------------|-------------------------|-
E|---------------------------------|-------------------------|-



E|-------------------------------------------------------------------------------------------|---
B|-------------------------------------------------------------------------------------------|---
G|-19p17-20p17-19p17-20p17-19p17-20p17-19p17-20p17-19p17-20p17-19p17-20p17-19p17-20p17-19p17-|---
D|-------------------------------------------------------------------------------------------|---
A|-------------------------------------------------------------------------------------------|---
E|-------------------------------------------------------------------------------------------|---



E|-18p16-19p16-18p16-19p16-18p16-19p16-18p16-19p16-18p16-19p16-18p16-19p16-18p16-19p16-18p16-|-
B|-------------------------------------------------------------------------------------------|-
G|-------------------------------------------------------------------------------------------|-
D|-------------------------------------------------------------------------------------------|-
A|-------------------------------------------------------------------------------------------|-
E|-------------------------------------------------------------------------------------------|-



E|-20p18-21p18-20p18-21p18-20p18-21p18-20p18-21p18-20p18-21p18-20p18-21p18-20p18-21p18-20p18--|-
B|--------------------------------------------------------------------------------------------|-
G|--------------------------------------------------------------------------------------------|-
D|--------------------------------------------------------------------------------------------|-
A|--------------------------------------------------------------------------------------------|-
E|--------------------------------------------------------------------------------------------|-



E|-12p11-14p11-12p11-14p11-12p11-14p11-12p11-14p11-12p11-14p11-12p11-14p11-12p11-14p11-12p11-|-
B|-------------------------------------------------------------------------------------------|-
G|-------------------------------------------------------------------------------------------|-
D|-------------------------------------------------------------------------------------------|-
A|-------------------------------------------------------------------------------------------|-
E|-------------------------------------------------------------------------------------------|-


interlude
E|-----------------|-----------------|-----------------|-----------------|-
B|-----------------|-----------------|-----------------|-----------------|-
G|-----------------|-----------------|-----------------|-----------------|-
D|-----2-------2---|-----0-------0---|-----2-------2---|-----0-------0---|-
A|---2---2---2---2-|---0---0---0---0-|---2---2---2---2-|---0---0---0---0-|-
E|-0-------0-------|-0-------0-------|-0-------0-------|-0-------0-------|-



E|-----------------|-----------------|-----------------|-----------------|-
B|---0-1-0---0-1-0-|---0-3-0---0-3-0-|---0-1-0---0-1-0-|---0-3-0---0-3-0-|-
G|-2-------2-------|-2-------2-------|-2-------2-------|-2-------2-------|-
D|-----------------|-----------------|-----------------|-----------------|-
A|-----------------|-----------------|-----------------|-----------------|-
E|-----------------|-----------------|-----------------|-----------------|-



E|-----------------|-----------------|-----------------|-----------------|-
B|-----------------|-----------------|-----------------|-----------------|-
G|-----------------|-----------------|-----------------|-----------------|-
D|-----------------|-----------------|-----------------|-----------------|-
A|-----------------|-----------------|-----------------|---------------2-|-
E|-0-0-0-0-0-0-0-0-|-0-0-0-0-0-0-0-0-|-0-0-0-0-0-0-0-0-|-0-0-0-0-0-0-0---|-



E|------------------|------------------|-----------------|-----------------|-
B|------------------|------------------|-----------------|-----------------|-
G|-------2--------4-|-------5----4---2-|-------2-------0-|-0-0-0h2-0h2-0h2-|-4x
D|-2-2-2----2-2-2---|-2-2-2----2---2---|-2-2-2---2-2-2---|-----------------|-
A|------------------|------------------|-----------------|-----------------|-
E|------------------|------------------|-----------------|-----------------|-



E|-----------------|-----------------|-----------------|-----------------|-
B|-----------------|-----------------|-----------------|-----------------|-
G|-----------------|-----------------|-----------------|-----------------|-
D|-----------------|-----------------|-----------------|-----------------|-
A|-----------------|-----------------|-----------------|---------------2-|-
E|-0-0-0-0-0-0-0-0-|-0-0-0-0-0-0-0-0-|-0-0-0-0-0-0-0-0-|-0-0-0-0-0-0-0---|-



E|----------------|----------------|----------------|--------------------|-
B|----------------|----------------|----------------|--------------------|-
G|----------------|----------------|----------------|--------------------|- repeat and fade out
D|----------------|----------------|----------------|--------------------|-
A|-9--0-0-9-0-0-9-|--0-0-9-0-0-9-0-|-9--0-0-9-0-0-9-|--0-0-9-0-0-9-------|-
E|-7--0-0-7-0-0-7-|--0-0-7-0-0-7-0-|-5--0-0-5-0-0-6-|--0-0-6-0-0-6-6/7/8-|-
http://www.guitartabcreator.com
Guitar Tab Creator is intended to store guitar tab created through the tool. It currently does not support in-line text editing. Any text you place in here will be lost. If you need to comment on your tab, please use the "Tab Notes" section located below.