Everyone Needs Salvation

Riff 1 (clean)
E|-----------------|-----------5-----|-x4
B|-----------------|---------5---5---|-
G|-----------------|-------5-------5-|-
D|-----7-----7---7-|-----7-----------|-
A|---7-----7-----7-|---7-------------|-
E|-5-----5-----5---|-5---------------|-

Rhythm Under Solo
E|-----------------|-----------5-----|-----------------|-----------0-----|-x4
B|-----------------|---------5---5---|-----------------|---------0---0---|-
G|-----------------|-------5-------5-|-----------------|-------0-------0-|-
D|-----7-----7---7-|-----7-----------|-----2-----2---2-|-----2-----------|-
A|---7-----7-----7-|---7-------------|---2-----2-----2-|---2-------------|-
E|-5-----5-----5---|-5---------------|-0-----0-----0---|-0---------------|-


Solo (dist. echo)
E|--------------|---------------------------12----|--------------------------------|--------|-
B|--------------|-12h13p12---------------------13-|--------------------------------|-13v----|-
G|-----------14-|----------12v----12-14-14v-------|-14v-16-17-14-16-17-16-14-12-14-|--------|-
D|--------14----|--------------14-----------------|--------------------------------|--------|-
A|-12v----------|---------------------------------|--------------------------------|--------|-
E|--------------|---------------------------------|--------------------------------|--------|-



E|-----------------------------|-------------------------------------|-
B|-----------------------------|-------------------20-19----20-19----|-
G|-----------------------------|-------19-21b22r21-------21----------|-
D|-----------12-14b15r14-12----|-19-21----------------------------19-|-
A|-12v-12-14-------------------|-------------------------------------|-
E|--------------------------12-|-------------------------------------|-



E|---------------------|-------------------------------|-
B|---------20-19-------|-22-20-19-17-19-20-22-17-21-19-|-
G|-19v-21v-------19----|-------------------------------|-
D|------------------21-|-------------------------------|-
A|---------------------|-------------------------------|-
E|---------------------|-------------------------------|-



E|-----------------------|-------------------------------------|-
B|-----------------------|-------------------------------------|-
G|-----9/11-12-11v-------|-9-11-12-14-16-17-16-14-12-14b16r14v-|-
D|-----------------------|-------------------------------------|-
A|-12v-------------12\0--|-------------------------------------|-
E|-----------------------|-------------------------------------|-



E|----------------------|--------------------------------17--|-
B|-13v-12-13v-----------|-15-13-12-12-10-7-8-10-12-15-17-----|-
G|------------14v-12----|------------------------------------|-
D|-------------------14-|------------------------------------|-
A|----------------------|------------------------------------|-
E|----------------------|------------------------------------|-



E|------------------------|-------------------------------|-
B|------------------------|-8p7---7h8p7---15-12-7-8-10-12-|-
G|------------------------|-----9-------7-----------------|-
D|-14b15r14--12-14b15-----|-------------------------------|-
A|------------------------|-------------------------------|-
E|---------------------12-|-------------------------------|-



E|-22-20-19-20-19-17-21-19-15-15-14-12-|-14-15-17-19-17-20-12-14-15-12-10-12--|-
B|-------------------------------------|--------------------------------------|-
G|-------------------------------------|--------------------------------------|-
D|-------------------------------------|--------------------------------------|-
A|-------------------------------------|--------------------------------------|-
E|-------------------------------------|--------------------------------------|-


x4 (last time rit.)
E|-----------------|-----------5-----|-5----------|-
B|-----------------|---------5---5---|-5----------|-
G|-----------------|-------5-------5-|-5----------|-
D|-----7-----7---7-|-----7-----------|-7----------|-
A|---7-----7-----7-|---7-------------|-7----------|-
E|-5-----5-----5---|-5---------------|-5----------|-


Riff 2 (far beyond driven)
E|--------------------|------------0-|--------------------|--------------------0-|-x3 (play once
B|--------------------|------------0-|--------------------|--------------------0-|- then solo)
G|-2-------2----------|--------------|-2-------2----------|----------------------|-
D|-2---2-2-2--2-2-----|-2-------2--2-|-2---2-2-2--2-2-----|-2-------2----2-----2-|-
A|-0---0-0-0--0-0-5-4-|-2---2-2-2--2-|-0---0-0-0--0-0-5-4-|-2---2-2-2----2-----2-|-
E|----------------3-2-|-0---0-0-0--0-|----------------3-2-|-0---0-0-0--0-0-0-0-0-|-


Solo (bludrv)
E|------------------------------15-14-|-----------------------------------------|-
B|------------------------------------|-15p12----12h15p12----------12-15-17--15-|-
G|------------------------------------|-------14--------------------------------|-
D|------------12-14-14b15p14-12-------|-----------------------------------------|-
A|------12-14-------------------------|-----------------------------------------|-
E|-12v--------------------------------|-------------------15-14-12--------------|-



E|--------------------------------------------------------|-
B|----12h15p12--------------------------------------------|-
G|-14----------14-12----12h14p12--------------------------|-
D|-------------------14----------14-12----12--------------|-
A|-------------------------------------14----12----12-----|-
E|----------------------------------------------14----12v-|-



E|--------------------------------------------------------|-
B|--------------------------------------------------------|-
G|----19-21b22r21-------------19p16----16h19p16-----------|-
D|-21-------------21-19-------------19----------19-17-16v-|-
A|----------------------21\19-----------------------------|-
E|--------------------------------------------------------|-



E|-------------------------------------------------|-
B|-------------------------------13p12-------------|-
G|-------------------------12-14-------12----17-14-|-
D|----------------12-14-12----------------14-------|-
A|-12-14-15p14-12----------------------------------|-
E|-------------------------------------------------|-



E|-----------------------------------------------------------|-
B|-------------------------------------------12-15-17-19-20--|-
G|-------------------------------------12-14-----------------|-
D|-14b15r14-12----12h14p12-------12-14-----------------------|-
A|-------------14----------14--------------------------------|-
E|----------------------------12-----------------------------|-



E|--------------------------------------------|-
B|-13p12----12h13p12--------------------------|-
G|-------14----------12-----------------------|-
D|----------------------14-12-----------------|-
A|----------------------------12----14--------|-
E|-------------------------------15-----12-12-|-



E|----------------------17v----|-0-------------|-
B|-12-15-17-15-17-19-20--------|-0-------------|-
G|-----------------------------|-4-------------|-
D|-----------------------------|-2-------------|-
A|-----------------------------|-2-------------|-
E|-----------------------------|-0-------------|-


Riff 3
E|-------------|-------------|-------------|-------------|-
B|-------------|-------------|-4-----------|-4-----------|-
G|-4-----------|-4-----------|-4-----------|-4-----------|-
D|-4-------4-4-|-4-------4-4-|-4-------4-4-|-4-------4-4-|-
A|-2-------2-2-|-2-------2-2-|-2-------2-2-|-2-------2-2-|-
E|-------------|-------------|-------------|-------------|-


(to coda) x2 coda
E|-----------------|-----------------|-----------------|-----------------|-----------|-
B|-----------------|-----------------|-----------------|-----------------|-----------|-
G|-4-----4-----4---|---4-------------|-4-----4-----4---|---4-------------|-4---------|-
D|-4-4-4-4-4-4-4-4-|-4-4-4-4-5-5-5-5-|-4-4-4-4-4-4-4-4-|-4-4-4-4-2-2-2-2-|-4---------|-
A|-2-2-2-2-2-2-2-2-|-2-2-2-2-5-5-5-5-|-2-2-2-2-2-2-2-2-|-2-2-2-2-2-2-2-2-|-2---------|-
E|-----------------|---------3-3-3-3-|-----------------|---------0-0-0-0-|-----------|- bass solo


Riff 4 (main lick)
E|----------|----------|------------|-----------------|-
B|----------|----------|------------|-----------------|-
G|-9--9-----|-7--7-----|-5--5-----5-|-4------4------4-|-
D|-9--9-9-9-|-7--7-7-7-|-5--5-5-5-5-|-4------4------4-|-
A|-7--7-7-7-|-5--5-5-5-|-3--3-3-3-3-|-2--2-2-2--2-2-2-|-
E|----------|----------|------------|-----------------|-
|
|
| (to coda)
E|----------|----------|-------|---------------|-
B|----------|----------|-------|---------------|-
G|-9--9-----|-7--7-----|-5--7--|-4-------------|-
D|-9--9-9-9-|-7--7-7-7-|-5--7--|-4-----------4-|-
A|-7--7-7-7-|-5--5-5-5-|-3--5--|-2-2-2-2-2-2-2-|-
E|-0--------|----------|-------|-2-------------|-x2 w/ solo lick x4


Solo lick
E|--------------------|------------------|-----------------|-----------------------------|-
B|--------------------|-8-7---------10-7-|-5-7-8-----------|-12b13r12-10-12b13r12--12-12-|-
G|---------7-9-9b10-9-|-----9-7----------|-------9-7-----9-|-----------------------------|-
D|-----7-9------------|---------9-7------|-----------9-7---|-----------------------------|-
A|--------------------|------------------|-----------------|-----------------------------|-
E|-12-----------------|------------------|-----------------|-----------------------------|-x4


Riff 5
E|------------|------------|------------|-----------------|-
B|------------|------------|------------|-----------------|-
G|------------|------------|------------|-----------------|-
D|-2------2---|-5----------|-2----------|-9---------------|-
A|-2--2-2-2-4-|-5--5-5-5-4-|-2--2-2-5-7-|-9-9-9-9-7-5-4-4-|-
E|-0--0-0-0-2-|-3--3-3-3-2-|-0--0-0-3-5-|-7-7-7-7-5-3-2-2-|-x2


Riff 6 x2 | x2 |
E|------|-0---------|------|-0----------|------|-0---------|------|-0------------|------|-----|-
B|------|----0------|------|----0-------|------|----0------|------|----0---------|-4----|-----|-
G|------|-----------|------|------------|------|-----------|------|--------------|-4----|-----|-
D|-2----|-----------|-2----|------------|-2----|-----------|-2----|--------------|-4----|-----|-
A|-2----|-----------|-2----|------------|-2----|-----------|-2----|--------------|-2----|-----|-
E|-0----|-------3-2-|-0----|------3-5-7-|-0----|-------7-2-|-0----|------7-5-3-2-|------|-----|-
|
Riff 7 (clean) | 2nd time play
E|---------2-------|---------2-------|---------2-------|---2---------2---|- | then hold 3 c.
B|-----3-----------|-----3-------3---|-----3-----------|---------3-----3-|-
G|-------4---------|-------4-------4-|-------4---------|-----4-----------|-
D|---4-------4---4-|---4-------------|---4-------4---4-|-------4---------|-
A|-2-----------2---|-2---------2-----|-2-----------2---|-2---------2-----|-
E|-----------------|-----------------|-----------------|-----------------|-x2 X6 solo


Solo lick (dist. echo)
E|---------------|-------------------|-------------14----------|-14h15-14-12----------|-
B|---5-7-8---8-7-|---7--8-10-12-10-8-|----------15----15-------|-------------12-8-7---|-
G|---------7-----|-9-----------------|-------16----------16----|--------------------9-|-
D|---------------|-------------------|----16----------------16-|----------------------|-
A|---------------|-------------------|-14----------------------|----------------------|-
E|---------------|-------------------|-------------------------|----------------------|-


Riff 8
E|----------|-
B|----------|-
G|-4---4----|-
D|-4-4-4-44-|-
A|-2-2-2-22-|-
E|----------|-x8 x16 w/ solo


Solo lick
E|----15-14----------12----|-
B|-12-------12-15-12----12-|-
G|-------------------------|-
D|-------------------------|-
A|-------------------------|-
E|-------------------------|-x8


Interlude x2 x2 (bass solo)
E|---------------|-----------------|------|-----|------|-------|---------|-----------------|-
B|---------------|-4-4-4-4-4-4-4-4-|------|-----|------|-------|---------|-4-4-4-4-4-4-4-4-|-
G|---------------|-4-4-4-4-4-4-4-4-|-4----|-----|-5----|-5---5-|-4-4-4-4-|-4-4-4-4-4-4-4-4-|-
D|-4-4-4-4-4-4-4-|-4-4-4-4-4-4-4-4-|-4----|-----|-5----|-5---5-|-4-4-4-4-|-4-4-4-4-4-4-4-4-|-
A|-2-2-2-2-2-2-2-|-2-2-2-2-2-2-2-2-|-2----|-----|-3----|-3---3-|-2-2-2-2-|-2-2-2-2-2-2-2-2-|-
E|---------------|-----------------|------|-----|------|-------|---------|-----------------|-
Play main lick
x2 x4 w/ solo
Solo intro
E|---------------------------|--------------------------|-
B|---------------------------|--------------------------|-
G|---------------------------|-17-17--16-17-19-19-19-19-|-
D|-19-19--17-19-21-21--19-21-|--------------------------|-
A|---------------------------|--------------------------|-
E|---------------------------|--------------------------|-


Main Solo (dist. echo)
E|--------------------------------------|----------------------------------|-
B|--------------------------12-15-17-19-|----------------------------------|-
G|--------------------12-14-------------|----------------------------------|-
D|-14b15r14--12-14-14-------------------|-14p12----12h14p12----------------|-
A|--------------------------------------|-------14----------14-12----------|-
E|--------------------------------------|-------------------------12-12v---|-



E|--------------------------------------|--------------------------------|-
B|-7h8p7---7h8p7------------------------|------------------8-7---15-10-7-|-
G|-------9-------9-7---7----------------|-7-9-9b11r9-9-7-------9---------|-
D|-------------------9---7---7----------|----------------9---------------|-
A|-------------------------9---7----7---|--------------------------------|-
E|-------------------------------10---7-|--------------------------------|-



E|----------------------------------------|-------------------------|-
B|-------------12-15-17-15----12h13-12----|-------------------------|-
G|----------------------------------------|-------19-21-19-17-19-17-|-
D|----14-12-14-------------14-------------|----19-------------------|-
A|----------------------------------------|-17----------------------|-
E|-12----------------------------------12-|-------------------------|-


!
E|-------------------------|--------------------------------------------|- Play riff 2-4
B|-------------------------|-------------------------------14h15p14-----|- (skip solos)
G|----------17-------------|----16-14----14-16b17r16-14-16----------14v-|-
D|----17----------17----17-|--------------------------------------------|-
A|-15----15----15----15----|-14-------14--------------------------------|-
E|-------------------------|--------------------------------------------|-x2


Riff 9 (coda) x4 x4
E|-----------------------|--------------------------|------------------------|--0----------------|-
B|-----------------------|--------------------------|------------------------|--0----------------|-
G|-----------------------|--------------------------|------------------------|--4----------------|-
D|-----------------------|--------------------------|------------------------|--2----------------|-
A|-----------------------|--------------------------|------------------------|--2----------------|-
E|-3\2-0-3\2-0-3\2-0-3\2-|-0-0-0-0-0-1-0-0-0-0-0-0-0|000000000000000000000000|-------------------|-
http://www.guitartabcreator.com
Guitar Tab Creator is intended to store guitar tab created through the tool. It currently does not support in-line text editing. Any text you place in here will be lost. If you need to comment on your tab, please use the "Tab Notes" section located below.