The eve of Destruction solo/whammy/wah


E|-------12h17p12-------12h17p12-------12h17p12-------12h17p12-|
B|-16b17----------16b17----------16b17----------16b17----------|
G|-------------------------------------------------------------|
D|-------------------------------------------------------------|
A|-------------------------------------------------------------|
E|-------------------------------------------------------------|



E|-------12h16p11-------12h16p11-------12h16p11-------12h16p11-|
B|-16b17----------16b17----------16b17----------16b17----------|
G|-------------------------------------------------------------|
D|-------------------------------------------------------------|
A|-------------------------------------------------------------|
E|-------------------------------------------------------------|



E|----------|----------|-------------------------------------------------|
B|----------|----------|-------------------------------------------------|
G|-12b15----|-12b15----|----12h14p12----13h15p13----14h16p14----15b17r15-|
D|----------|----------|-14----------15----------16----------17----------|
A|----------|----------|-------------------------------------------------|
E|----------|----------|-------------------------------------------------|



E|-------------------------------------------------|--22-22-22-22-22--21-|
B|-------------------------------------------------|---------------------|
G|----16h18p16----17h19p17----18h20p18----19h21p19-|---------------------|
D|-18----------19----------20----------21----------|---------------------|
A|-------------------------------------------------|---------------------|
E|-------------------------------------------------|---------------------|



E|-------------------------------------------------|
B|-------------------------------------------------|
G|-------------------------------------------------|
D|-------------------------------------------------|
A|-------------15p14-18p14-------------15p14-18p14-|
E|-15p14-18p14-------------15p14-18p14-------------|



E|-----------------------------------------|
B|-----------------------------------------|
G|-----------------------------------------|
D|-----------------------------------------|
A|-----------------------------------------|
E|-14p0-15p0-16p0-17p0-18p0-19p0-20p0-21p0-|



E|-----------------|-----------------|---------------|---------------------------------|
B|-----------------|-----------------|---------------|---------------------------------|
G|-----------------|-----------------|---------------|---------------------------------|
D|-----------------|-----------------|---------------|---------------------------------|
A|-----10h11h12----|-----10h11h12----|----9h10h11----|---7h8h9-------------------------|
E|-12-----------11-|-12-----------11-|-11---------10-|-9-------8p0-7p0-6p0-5p0-4p0-3p0-|



E|-----------|-11--11--11--11-|----10-|
B|-----------|-13--13--13--13-|----12-|
G|-----------|-12--12--12--12-|----11-|
D|-----------|----------------|-------|
A|-----------|----------------|-------|
E|-2p0-1---5/|----------------|-------|



E|-----------------------------------------------------------------|
B|-----------------------------------------------------------------|
G|---7h9p7---7h9p7---7h9p7---7h9p7---7h9p7---7h9p7---7h9p7---7h9p7-|
D|-9-------9-------9-------9-------9-------9-------9-------9-------|
A|-----------------------------------------------------------------|
E|-----------------------------------------------------------------|



E|-----------------------------------------------------------------|
B|-----------------------------------------------------------------|
G|---7h9p7---7h9p7---7h9p7---7h9p7---7h9p7---7h9p7---7h9p7---7h9p7-|
D|-9-------9-------9-------9-------9-------9-------9-------9-------|
A|-----------------------------------------------------------------|
E|-----------------------------------------------------------------|



E|--11--------|-----------|
B|--13--------|-----------|
G|--12--------|--------11\|
D|------------|-----------|
A|------------|-----------|
E|------------|-----------|
http://www.guitartabcreator.com
Guitar Tab Creator is intended to store guitar tab created through the tool. It currently does not support in-line text editing. Any text you place in here will be lost. If you need to comment on your tab, please use the "Tab Notes" section located below.