Edge of the Flame solo/wah

(/) Slide Up  (\) Slide Down  (h) Hammer On  (p) Pull Off  (b) Bend (r) Release (v) Vibrato


E|------------------------|------------------------|-6p0-7p0-8p0-9p0-10p0-11p0-12p0-13p0-|-
B|-12---------11p10-11p10-|-12---------15h17-15b16-|-------------------------------------|-
G|-------9/12-------------|-------9/12-------------|-------------------------------------|-
D|----14------------------|----14------------------|-------------------------------------|-
A|------------------------|------------------------|-------------------------------------|-
E|------------------------|------------------------|-------------------------------------|-



E|-14p0-15p0-16p0-17p0-18p0-19p0-20p0-21p0-|-21/-20b21-------------------------|-
B|-----------------------------------------|-----------------------------------|-
G|-----------------------------------------|-----------------------------------|-
D|-----------------------------------------|-----------------------------------|-
A|-----------------------------------------|-----------------14p12-------14h12-|-
E|-----------------------------------------|-----------12h14-------12h14-------|-



E|-------------------------|-------------------------|----------------|---------------|---
B|-------------------------|-------------------------|----------------|---------------|---
G|-------------------------|-------------------------|----------------|---------------|---
D|-------------------------|-------------------------|-12-------------|-12------------|---
A|-------------------------|-------------------------|-14--------10---|-14-------10---|---
E|-12h14-13h15-14h16-15h17-|-16h18-17h19-18h20-19h21-|-12--12h14-10-7\|-12-12h14-10-6\|---



E|-----------------------------|------------------------------|---------|-
B|-----------------------------|------------------------------|---------|-
G|-----------------------------|------------------------------|---------|-
D|-----------------------------|------------------------------|---------|-
A|-----------------------------|------------------------------|-2-------|-
E|-21\17--20\16--19\15--18\14--|-17\13--16\12--15\11--14\10---|-0----15\|-
http://www.guitartabcreator.com
Guitar Tab Creator is intended to store guitar tab created through the tool. It currently does not support in-line text editing. Any text you place in here will be lost. If you need to comment on your tab, please use the "Tab Notes" section located below.