Dead End Solo

(/) Slide Up  (\) Slide Down  (h) Hammer On  (p) Pull Off  (b) Bend (r) Release (v) Vibrato


E|--------------------------------|------------------------------|
B|-15-----------------------------|------------------------------|
G|-14h16--16-16-16-16-16-16-16-16-|-16b17-16b17--16b17-16b17-----|
D|--------------------------------|------------------------------|
A|--------------------------------|------------------------------|
E|--------------------------------|---------------------------12\|



E|-------------------------------------|-------------------------------------|
B|-13p12----13p12----13p12----13p12----|-13p12----13p12----13p12----13p12----|
G|-------13-------13-------13-------13-|-------12-------12-------12-------12-|
D|-------------------------------------|-------------------------------------|
A|-------------------------------------|-------------------------------------|
E|-------------------------------------|-------------------------------------|x2



E|-------------------------------------|-------------------------------------|
B|-15p14----15p14----15p14----15p14----|-15p14----15p14----15p14----15p14----|
G|-------15-------15-------15-------15-|-------14-------14-------14-------14-|
D|-------------------------------------|-------------------------------------|
A|-------------------------------------|-------------------------------------|
E|-------------------------------------|-------------------------------------|x2



E|-------------------------------------|-------------------------------------|
B|-17p16----17p16----17p16----17p16----|-17p16----17p16----17p16----17p16----|
G|-------17-------17-------17-------17-|-------16-------16-------16-------16-|
D|-------------------------------------|-------------------------------------|
A|-------------------------------------|-------------------------------------|
E|-------------------------------------|-------------------------------------|x2



E|---------------------------------------------------|
B|-0h5h8-0h5h8-0h5h7-0h5h7-0h5h8-0h5h8-0h7h10-0h7h10-|
G|---------------------------------------------------|
D|---------------------------------------------------|
A|---------------------------------------------------|
E|---------------------------------------------------|x3



E|---------------------------------|---------------------------------|
B|---------------------------------|---------------------------------|
G|---------------------------------|---------------------------------|
D|---------------------------------|---------------------------------|
A|---------------------------------|---------------------------------|
E|-14p12p0-15p13p0-16p14p0-17p15p0-|-18p16p0-19p17p0-20p18p0-21p19p0-|



E|---------------------------------------|---------------------------------------|
B|---------------------------------------|---------------------------------------|
G|-10-8----------8h10-8------8h10-8------|-10-8----------8h10-8------8h10-8------|
D|------10--8-10--------10-8--------10-8-|------10--8-10--------10-8--------10-8-|
A|---------------------------------------|---------------------------------------|
E|---------------------------------------|---------------------------------------|



E|-----------------------------------------------|-----------------|
B|-----------------------------------------------|-----------------|
G|-15-13-----------13h15-13-------13h15-13-------|-15--17--19--19--|
D|-------15--13-15----------15-13----------15-13-|-----------------|
A|-----------------------------------------------|-----------------|
E|-----------------------------------------------|-----------------|



E|-------11-9----------11-9-|-------11-9----------11-9-|--------18-16-----------18-16-|
B|-11--9------11--9h11------|-11--9------11--9h11------|-18--16-------18--16h18-------|
G|-20~~~~<-fade-out---------|--------------------------|------------------------------|
D|--------------------------|--------------------------|------------------------------|
A|--------------------------|--------------------------|------------------------------|
E|--------------------------|--------------------------|------------------------------|



E|-18-16-20-18-22-20-23-|-----(23)/\/\/\/\--|
B|----------------------|-------------------|
G|----------------------|-------------------|
D|----------------------|-------------------|
A|----------------------|-------------------|
E|----------------------|-------------------|
http://www.guitartabcreator.com
Guitar Tab Creator is intended to store guitar tab created through the tool. It currently does not support in-line text editing. Any text you place in here will be lost. If you need to comment on your tab, please use the "Tab Notes" section located below.