Countdown to Extinction

 intro
E|---------------------------------|---------------------------------|
B|---------------------------------|---------------------------------|
G|---------------------------------|---------------------------------|
D|-----3-------3-------2-------2---|-----3-------3-------2-------2---|
A|---1---1---1---1---1---1---1-----|---1---1---1---1---1---1---1-----|
E|-0-------0-------0-------0-----1-|-0-------0-------0-------0-----1-|x4
sec. time rit.


E|---------------------------------|---------------------------------|
B|---------------------------------|---------------------------------|
G|---------------------------------|---------------------------------|
D|---0-1-0---0-1-0---0-1-0---0-1-0-|---0-3-0---0-3-0---0-3-0---------|
A|-3-------3-------3-------3-------|-2-------2-------2-------7-5-3-2-|
E|---------------------------------|---------------------------------|x4



E|-------------------------|-----------|
B|-------------------------|-----------|
G|-------------------------|-----------|
D|-2-----------------------|-(2)-------|
A|-2-----------------------|-(2)-------|
E|-0-----------------------|-(0)-------|


E|--------------------------------------------------|
B|--------------------------------------------------|
G|--------------------------------------------------|
D|--------------------------------------------------|
A|--2--9--7--5--2--9--7--5--2--9--7--5--2--5--7--9--|
E|--0--7--5--3--0--7--5--3--0--7--5--3--0--3--5--7--|x4



E|---------------------------------|---------------------------------|
B|---------------------------------|---------------------------------|
G|---------------------------------|---------------------------------|
D|---0-1-0---0-1-0---0-1-0---0-1-0-|---0-3-0---0-3-0---0-3-0---------|
A|-3-------3-------3-------3-------|-2-------2-------2-------7-5-3-2-|
E|---------------------------------|---------------------------------|x4


verse
E|---------------------------------|---------------------------------|
B|---------------------------------|---------------------------------|
G|---------------------------------|---------------------------------|
D|-----3-------3-------3-------3---|-----2-------2-------2-------2---|
A|---1---1---1---1---1---1---1-----|---1---1---1---1---1---1---1-----|
E|-0-------0-------0-------0-----1-|-0-------0-------0-------0-----1-|x2


pre-chorus
E|---------------------------------|---------------------------------|
B|---------------------------------|---------------------------------|
G|---------------------------------|---------------------------------|
D|-4-------4-------4-------5-------|-4-------4-------4-------5-------|
A|-4-------4-------4-------5-------|-4-------4-------4-------5-------|
E|-2-2-2-2-2-2-2-2-2-2-2-2-3-3-3-3-|-2-2-2-2-2-2-2-2-2-2-2-2-3-3-3-3-|x2



E|---------------------------------|---------------------------------|
B|---------------------------------|---------------------------------|
G|---------------------------------|---------------------------------|
D|---------------------------------|---------------------------------|
A|---------------------------------|---------------------------------|
E|-2-2-2-2-2-2-2-2-2-2-2-2-2-2-2-2-|-2-2-2-2-2-2-2-2-2-2-2-2-2-2-2-2-|


chorus
E|--------------------------------------------------|
B|--------------------------------------------------|
G|--------------------------------------------------|
D|--------------------------------------------------|
A|--2--9--7--5--2--9--7--5--2--9--7--5--2--5--7--9--|
E|--0--7--5--3--0--7--5--3--0--7--5--3--0--3--5--7--|x2
sec.time repeat
end here------] x2
E|---------------------|---------------|-----------|
B|---------------------|---------------|-----------|
G|---------------------|---------------|-----------|
D|-5----4----3----2----|-10--10-10--10-|-6--6-6--6-|
A|-5----4----3----2----|-10--10-10--10-|-6--6-6--6-|
E|-3----2----1----0----|-8---8--8---8--|-4--4-4--4-|



E|---------------------------------|---------------------------------|
B|---------------------------------|---------------------------------|
G|---------------------------------|---------------------------------|
D|---0-1-0---0-1-0---0-1-0---0-1-0-|---0-3-0---0-3-0---0-3-0---------|
A|-3-------3-------3-------3-------|-2-------2-------2-------7-5-3-2-|
E|---------------------------------|---------------------------------|x2

E|-----------|-------|---------|
B|-----------|-------|---------|
G|-----------|-4--5--|-6-7-8-9-|
D|-5----4----|-------|---------|
A|-5----4----|-4--5--|-6-7-8-9-|
E|-3----2----|-2--3--|-4-5-6-7-|


solo
E|-------------------------------------------------|
B|-15----15----15----15----15----15----15----15----|
G|-14b16-14b16-14b16-14b16-14b16-14b16-14b16-14b16-|
D|-------------------------------------------------|
A|-------------------------------------------------|
E|-------------------------------------------------|x2



E|-----------------------------------------------------------------|
B|-15p12p0-15p12p0-15p12p0-15p12p0-17p12p0-17p12p0-17p12p0-17p12p0-|
G|-----------------------------------------------------------------|
D|-----------------------------------------------------------------|
A|-----------------------------------------------------------------|
E|-----------------------------------------------------------------|x2



E|-----------------------------------------------------------------|
B|-17p14p0-17p14p0-17p14p0-17p14p0-19p14p0-19p14p0-19p14p0-19p14p0-|
G|-----------------------------------------------------------------|
D|-----------------------------------------------------------------|
A|-----------------------------------------------------------------|
E|-----------------------------------------------------------------|x2



E|---------------------------------------|------------------------------------|
B|---------------------------------------|------------------------------------|
G|-14-----14----14----13-----13----13----|-12-----12----12----11-----11-11----|
D|-13b14--13b14-13b14-12b13--12b13-12b13-|-11b12--11b12-11b12-10b11--10b10b11-|
A|---------------------------------------|------------------------------------|
E|---------------------------------------|------------------------------------|x2



E|-10p8p7--------10p8p7--------12p10p9---------12p10p9---------|
B|--------10p8p7--------10p8p7---------12p10p9---------12p10p9-|
G|-------------------------------------------------------------|
D|-------------------------------------------------------------|
A|-------------------------------------------------------------|
E|-------------------------------------------------------------|x3



E|------------------------------|---------------------|
B|------------------------------|---------------------|
G|-12b14r12-12-11----10----9----|-8---7---6---5-------|
D|----------------12----11---10-|---9---8---7---6---6\|
A|------------------------------|---------------------|
E|------------------------------|---------------------|


E|---------------------------------|---------------------------------|
B|---------------------------------|---------------------------------|
G|---------------------------------|---------------------------------|
D|---------------------------------|---------------------------------|
A|---------------------------------|---------------------------------|
E|-0-4-6-4-0-4-6-4-0-4-6-4-0-4-6-4-|-0-5-6-5-0-5-6-5-0-5-6-5-0-5-6-5-|
|
|x4
E|-----3-------3-------3-----3-3---|-----3-------3-------3-----3-3-5-|
B|---3---3---3---3---3---3-------3-|---3---3---3---3---3---3---------|
G|-4-------4-------4-------4-------|-5-------5-------5-------5-------|
D|---------------------------------|---------------------------------|
A|---------------------------------|---------------------------------|
E|---------------------------------|---------------------------------|



E|-----------------|-----------------------|
B|-----------------|-----------------------|
G|-7-7-7-7-8-8-8-8-|-9-9-10-10-11-11-12-12-|
D|-----------------|-----------------------|
A|-5-5-5-5-6-6-6-6-|-7-7-8--8--9--9--10-10-|
E|-----------------|-----------------------|


final chorus
E|--------------------------------------------------|
B|--------------------------------------------------|
G|--------------------------------------------------|
D|--------------------------------------------------|
A|--2--9--7--5--2--9--7--5--2--9--7--5--2--5--7--9--|
E|--0--7--5--3--0--7--5--3--0--7--5--3--0--3--5--7--|x2

sec. time repeat
end here------] x2
E|---------------------0-|---------------|-----------|
B|-------------------0---|---------------|-----------|
G|-----------------------|---------------|-----------|
D|-5----4----3----2------|-10--10-10--10-|-6--6-6--6-|
A|-5----4----3----2------|-10--10-10--10-|-6--6-6--6-|
E|-3----2----1----0------|-8---8--8---8--|-4--4-4--4-|


outro
E|---------------------------------|---------------------------------|
B|---------------------------------|---------------------------------|
G|---------------------------------|---------------------------------|
D|---0-1-0---0-1-0---0-1-0---0-1-0-|---0-3-0---0-3-0---0-3-0---------|
A|-3-------3-------3-------3-------|-2-------2-------2-------7-5-3-2-|
E|---------------------------------|---------------------------------|x4



E|---------------------------|----------------|
B|---------------------------|----------------|
G|---------------------------|----------------|
D|-2---------------------(2)-|----------------|
A|-2---------------------(2)-|-7-5-3-2-3------|
E|-0---------------------(0)-|----------------| END
http://www.guitartabcreator.com
Guitar Tab Creator is intended to store guitar tab created through the tool. It currently does not support in-line text editing. Any text you place in here will be lost. If you need to comment on your tab, please use the "Tab Notes" section located below.