Black Forest Overture



Intensely
E|-----------|--------------|----------|----------------|-
B|-----------|--------------|----------|----------------|-
G|-10--------|--------------|-6--------|--------6-----6-|-
D|-10--------|--------10-10-|-6--------|----6-6-6-6-6-6-|-X2
A|-8---------|--------8--8--|-4--------|----4-4-4-4-4-4-|-
E|-----------|--------------|----------|----------------|-


Boldly (slower)
E|------------------------|-----------------|----------|---------------------------------|-
B|-----------------4------|----------7--7---|-6--------|-----6-------6-------6-------6---|-
G|-----------------3--3-3-|-6--6-----6--6-6-|-5--------|---5---5---5---5---5---5---5---5-|-
D|-----1-------1---1--1-1-|-6--6-6-6-4--4-4-|-3--------|-3-------3-------3-------3-------|-
A|-1-3---3-1-3---3--------|-4--4-4-4--------|----------|---------------------------------|-
E|------------------------|-----------------|----------|---------------------------------|-



E|------------------------|---------------|-------------|--------------|-
B|-----------------4------|---------------|-------------|--------------|-
G|-----------------3--3-3-|-6-------------|-------------|-5------------|-
D|-----1-------1---1--1-1-|-6--6-6-5------|-6-----------|-5------------|-
A|-1-3---3-1-3---3--------|-4--4-4-5--5-5-|-6-----------|-3----3-3-3-3-|-
E|------------------------|--------3--3-3-|-4---4-4-4-4-|--------------|-

faster.......
2/4 3/4 4/4 Tempo I
E|-------------|-----|------|-------|----------|---------|-
B|--------4----|-----|------|-7-----|-6--------|-(6)-----|-
G|----15v-3--3-|-5---|-6----|-6-----|-5--------|-(5)-----|-
D|--------1--1-|-5---|-6----|-4-----|-3--------|-(3)-----|-
A|-13----------|-3---|-4----|-------|----------|---------|-
E|-------------|-----|------|-------|----------|---------|-


!
E|-----------------|-----------------|-----------------|-----------------|-
B|-6-------6---6---|-----6---6-------|-6-------6---6---|-8---------------|-
G|-5-------5---5---|-----5---5-------|-5-------5---5---|-7---7-7-5-------|-
D|-3-3-3-3-3-3-3-3-|-3-3-3-3-3-3-3-3-|-3-3-3-3-3-3-3-3-|-5---5-5-5---5-5-|-
A|-----------------|-----------------|-----------------|---------3---3-3-|-
E|-----------------|-----------------|-----------------|-----------------|-



E|-------------------|-------------------|-------------------|-------------------|-
B|-6-----------------|----------7--------|-6-----------------|-------------------|-
G|-5----5-5-6--------|-5--------6----6-6-|-5----5-5-3--------|-6---------8-------|-
D|-3----3-3-6----6-6-|-5----5-5-4----4-4-|-3----3-3-3----3-3-|-6---------8-------|-
A|----------4----4-4-|-3----3-3----------|----------1----1-1-|-4-4-4-4-4-6-6-6-6-|-
E|-------------------|-------------------|-------------------|-------------------|-



E|-----------------|-----------------|-----------------|-----------------|-
B|-6-----6-----6---|---6-----4---6---|-6-----6-----6---|---6-----4---6---|-
G|-5-----5-----5---|---5-----3---5---|-5-----5-----5---|---5-----3---5---|-
D|-3-3-3-3-3-3-3-3-|-3-3-3-3-1-1-3-3-|-3-3-3-3-3-3-3-3-|-3-3-3-3-1-1-3-3-|-
A|-----------------|-----------------|-----------------|-----------------|-
E|-----------------|-----------------|-----------------|-----------------|-


PLAY HARD!
E|------------|------------|------------|-----------|-
B|-6---6---6--|------------|------------|-----------|-
G|-5---5---5--|-6---6---6--|-3---3---3--|-----5-----|-
D|-3---3---3--|-6---6---6--|-3---3---3--|-5---5-5-5-|-
A|------------|-4---4---4--|-1---1---1--|-5-5-3-3-3-|-
E|------------|------------|------------|-3-3-------|-


To Coda (#)
E|---------------|---------------|---------------|--------------------------|-
B|-6--6-6--------|--------7--7-7-|-6--6-6--------|--------------------------|-
G|-5--5-5-6--6-6-|-5--5-5-6--6-6-|-5--5-5-3--3-3-|-6--------8--------8------|-
D|-3--3-3-6--6-6-|-5--5-5-4--4-4-|-3--3-3-3--3-3-|-6--------8--------8------|-
A|--------4--4-4-|-3--3-3--------|--------1--1-1-|-4--4-4-4-6--6-6-6-6--6-6-|-
E|---------------|---------------|---------------|--------------------------|-


slower....... !
E|----------------|--------|--------|----------|-----------|-
B|----------------|--------|--------|----------|-----------|-
G|-----6-8b10r8-8-|-6----6-|-8----8-|-3--------|-3---------|-
D|-6-8------------|-6----6-|-8----8-|-3--------|-3---------|-
A|----------------|-4----4-|-6----6-|-1--------|-1---------|-
E|----------------|--------|--------|----------|-----------|-


Solo 1 (calmly)
E|----------------14-|-13----13h16p13-------------------------------------|-
B|-13b14r13-11-13----|----16----------16-13----13h16p13-------------------|-
G|-------------------|----------------------15----------15-13-15b16r15-15-|-
D|-------------------|----------------------------------------------------|-
A|-------------------|----------------------------------------------------|-
E|-------------------|----------------------------------------------------|-



E|---------------------------------|----------------------------16-14-13-------------|-
B|---------------------------------|----------------------14-13-------------13-------|-
G|-13-----13-----------------------|----------------13-15----------------15----13-13-|-
D|-----15----13----13--------------|----13----13-15----------------------------------|-
A|--------------15----13----13-----|-15----15----------------------------------------|-
E|-----------------------16----13~~|-------------------------------------------------|-



E|----------------14-|-13----16-13-------------------------------------|-
B|-13b14r13-11-13----|----16-------16-14-13----14-13-------------------|-
G|-------------------|----------------------15-------13----13----13-15-|-
D|-------------------|----------------------------------15----13-------|-
A|-------------------|-------------------------------------------------|-
E|-------------------|-------------------------------------------------|-



E|---------------|-------------|----------------|---------------------------------|-
B|---------------|-1b2r1---1---|-------1--2p1---|-2-1-----------------------------|-
G|---------------|-------3-----|---1-3--------3-|-----1---1-----------------------|-
D|-----13-15~~~~~|-----------4-|-3--------------|-------3---1---1-----------------|-
A|---------------|-----------4-|-3--------------|-------------3---1---3-1-----1---|-
E|-15---------13-|-----------2-|-1--------------|-------------------4-----2-1---1-|-



E|--------|----------|-----------|--------|-------|-------|-
B|--7-6---|----------|-----------|--------|-------|-------|-
G|--6-5-6-|----------|-----------|-7-6----|-------|-------|-
D|--4-3-6-|-5--------|-----4-3---|-7-6----|--5----|-6-----|-
A|------4-|-5--------|-----4-3---|-5-4----|--5----|-6-----|-
E|--------|-3----3-3-|-3-3-2-1---|--------|--3----|-4-----|-


Solo 2 (heavier)
E|-------------------------|-------------14-12-11----|-------------------------|-
B|-------------------------|-11-12-14-12----------11-|----12-11----------------|-
G|-------------------11-13-|-------------------------|-13-------11----11-------|-
D|-------------11-13-------|-------------------------|-------------13----11----|-
A|-------11-13-------------|-------------------------|----------------------13-|-
E|-11-14-------------------|-------------------------|-------------------------|-


D.S. al Coda (!)
E|-------------------------|-
B|-------------------------|-
G|-------------------------|-
D|-------------------------|-
A|-------11----------11----|-
E|-11-13----11-11-14----11-|-


# Coda
E|-------------------------|-------|-------------------------|-------|-
B|-------------------------|-------|-------------------------|-------|-
G|-------17-19b20p19-17-17-|-7-----|-------16-18b19r18-16-16-|-6-----|-
D|-17-19-------------------|-7-----|-16-18-------------------|-6-----|-
A|-------------------------|-5-----|-------------------------|-4-----|-
E|-------------------------|-------|-------------------------|-------|-
______________
| |
| |
E|----------------|-----------|-
B|----------------|-----------|-
G|----------12-13-|-------0-1-|-
D|----15-15-------|---3-3-----|-
A|-15-------------|-3---------|-
E|----------------|-----------|-


Loud symbols!!!!
E|---------|---------|--------|--------|-
B|---------|---------|--6-----|-(6)----|-
G|-3-------|---------|--5-----|-(5)----|-
D|-3---3-3-|-5-------|--3-----|-(3)----|-
A|-1---1-1-|-5---5-5-|--------|--------|-
E|---------|-3---3-3-|--------|--------|-
http://www.guitartabcreator.com
Guitar Tab Creator is intended to store guitar tab created through the tool. It currently does not support in-line text editing. Any text you place in here will be lost. If you need to comment on your tab, please use the "Tab Notes" section located below.