The Ancient Ruins

(/) Slide Up  (\) Slide Down  (h) Hammer On  (p) Pull Off  (b) Bend (r) Release (v) Vibrato


E|---------0-------|---------0-------|---------0-------|---------0-------|-
B|-------0---0-----|-------0---0-----|-------0---0-----|-------0---0-----|-
G|-----7-------7---|-----7-------7---|-----7-------7---|-----7-------7---|-
D|---9-----------9-|---9-----------9-|---9-----------9-|---9-----------9-|-
A|-0---------------|-0---------------|-8---------------|-8---------------|-
E|-----------------|-----------------|-----------------|-----------------|-x2



E|---------0-------|---------0-------|---------0-------|---------0-------|-
B|-------0---0-----|-------0---0-----|-------0---0-----|-------0---0-----|-
G|-----5-------5---|-----5-------5---|-----5-------5---|-----5-------5---|-
D|---7-----------7-|---7-----------7-|---7-----------7-|---7-----------7-|-
A|-0---------------|-0---------------|-6---------------|-6---------------|-
E|-----------------|-----------------|-----------------|-----------------|-x2



E|-------1-------1-|-------1-------1-|-------1-------1-|-------1-------1-|-
B|-----3-------3---|-----3-------3---|-----3-------3---|-----3-------3---|-
G|---2-------2-----|---3-------3-----|---2-------2-----|---3-------3-----|-
D|-0-------0-------|-0-------0-------|-0-------0-------|-0-------0-------|-
A|-----------------|-----------------|-----------------|-----------------|-
E|-----------------|-----------------|-----------------|-----------------|-x2



E|-------5-------5-|-------4-------4-|-------5-------5-|-------4-------4-|-
B|-----6-------6---|-----5-------5---|-----6-------6---|-----5-------5---|-
G|---7-------7-----|---6-------6-----|---7-------7-----|---6-------6-----|-
D|-0-------0-------|-----------------|-0-------0-------|-----------------|-
A|-----------------|-4-------4-------|-----------------|-4-------4-------|-
E|-----------------|-----------------|-----------------|-----------------|-x2



E|---------0-------|---------0-------|---------0-------|---------0-------|-
B|-------0---0-----|-------0---0-----|-------0---0-----|-------0---0-----|-
G|-----5-------5---|-----5-------5---|-----5-------5---|-----5-------5---|-
D|---7-----------7-|---7-----------7-|---7-----------7-|---7-----------7-|-
A|-0---------------|-0---------------|-6---------------|-6---------------|-
E|-----------------|-----------------|-----------------|-----------------|-x4



E|-----------------|-----------------|-----------------|-----------------|-
B|-----------------|-----------------|-----------------|-----------------|-
G|-2-3-2-4-2-3-2-5-|-2-3-2-4-2-3-2-5-|-2-3-2-4-2-3-2-5-|-2-3-2-4-2-3-2-5-|-
D|-0-0-0-0-0-0-0-0-|-0-0-0-0-0-0-0-0-|-0-0-0-0-0-0-0-0-|-0-0-0-0-0-0-0-0-|-
A|-----------------|-----------------|-----------------|-----------------|-
E|-----------------|-----------------|-----------------|-----------------|-x2



E|-----------------|-----------------|-----------------|-----------------|-
B|-----1-0---------|-----3-0---------|-----1-0---------|-----3-0---------|-
G|---2-----------0-|---2-----------0-|---2-----------0-|---2-----------0-|-
D|-------------2---|-------------2---|-------------2---|-------------2---|-
A|-----------2-----|-----------2-----|-----------2-----|-----------2-----|-
E|-0-------0-------|-0-------0-------|-0-------0-------|-0-------0-------|-x2



E|-------7-------7-|-------6-------6-|-------7-------7-|-------6-------6-|-
B|-----8-------8---|-----7-------7---|-----8-------8---|-----7-------7---|-
G|---9-------9-----|---8-------8-----|---9-------9-----|---8-------8-----|-
D|-----------------|-----------------|-----------------|-----------------|-
A|-7-------7-------|-6-------6-------|-7-------7-------|-6-------6-------|-
E|-----------------|-----------------|-----------------|-----------------|-x2



E|---5-------5-----|---4-------4-----|---5-------5-----|---6-------6-----|-
B|-----5-------5---|-----4-------4---|-----5-------5---|-----6-------6---|-
G|-5-----5-5-----5-|-5-----5-5-----5-|-5-----5-5-----5-|-5-----5-5-----5-|-
D|-----------------|-----------------|-----------------|-----------------|-
A|-----------------|-----------------|-----------------|-----------------|-
E|-----------------|-----------------|-----------------|-----------------|-x2



E|---------0-------|---------0-------|---------0-------|---------0-------|-
B|-------0---0-----|-------0---0-----|-------0---0-----|-------0---0-----|-
G|-----7-------7---|-----7-------7---|-----7-------7---|-----7-------7---|-
D|---9-----------9-|---9-----------9-|---9-----------9-|---9-----------9-|-
A|-0---------------|-8---------------|-0---------------|-8---------------|-
E|-----------------|-----------------|-----------------|-----------------|-x4



E|---------0-------|---------0-------|---------0-------|---------0-------|-
B|-------0---0-----|-------0---0-----|-------0---0-----|-------0---0-----|-
G|-----5-------5---|-----5-------5---|-----5-------5---|-----5-------5---|-
D|---7-----------7-|---7-----------7-|---7-----------7-|---7-----------7-|-
A|-0---------------|-6---------------|-0---------------|-6---------------|-
E|-----------------|-----------------|-----------------|-----------------|-x4



E|-----------------|-----------------|-----------------|-----------------|-
B|-----------------|-----------------|-----------------|-----------------|-
G|-----------------|-----------------|-----------------|-----------------|-
D|-----------------|-----------------|-----------------|-----------------|-
A|-----7-5-----5-7-|-----7-5-----5-7-|-----7-5-----5-7-|-----7-5-----5-7-|-
E|-0-0-----0-0-----|-0-0-----0-0-----|-0-0-----0-0-----|-0-0-----0-0-----|-x4



E|-------1-------1-|-------1-------1-|-------1-------1-|-------1-------1-|-
B|-----3-------3---|-----3-------3---|-----3-------3---|-----3-------3---|-
G|---2-------2-----|---3-------3-----|---2-------2-----|---3-------3-----|-
D|-0-------0-------|-0-------0-------|-0-------0-------|-0-------0-------|-
A|-----------------|-----------------|-----------------|-----------------|-
E|-----------------|-----------------|-----------------|-----------------|-x2



E|---------0-------|---------0-------|---------0-------|---------0-------|-
B|-------0---0-----|-------0---0-----|-------0---0-----|-------0---0-----|-
G|-----7-------7---|-----7-------7---|-----5-------5---|-----5-------5---|-
D|---9-----------9-|---9-----------9-|---7-----------7-|---7-----------7-|-
A|-0---------------|-8---------------|-0---------------|-6---------------|-
E|-----------------|-----------------|-----------------|-----------------|-x4



E|-------5-------5-|-------4-------4-|-------5-------5-|-------4-------4-|-
B|-----6-------6---|-----5-------5---|-----6-------6---|-----5-------5---|-
G|---7-------7-----|---6-------6-----|---7-------7-----|---6-------6-----|-
D|-----------------|-----------------|-----------------|-----------------|-
A|-5-------5-------|-4-------4-------|-5-------5-------|-4-------4-------|-
E|-----------------|-----------------|-----------------|-----------------|-x2



E|-------7-------7-|-------6-------6-|-------7-------7-|-------6-------6-|-
B|-----8-------8---|-----7-------7---|-----8-------8---|-----7-------7---|-
G|---9-------9-----|---8-------8-----|---9-------9-----|---8-------8-----|-
D|-----------------|-----------------|-----------------|-----------------|-
A|-7-------7-------|-6-------6-------|-7-------7-------|-6-------6-------|-
E|-----------------|-----------------|-----------------|-----------------|-x2



E|-----------------|-----------------|-----------------|-----------------|-
B|-----------------|-----------------|-----------------|-----------------|-
G|-2-3-2-4-2-3-2-5-|-2-3-2-4-2-3-2-5-|-2-3-2-4-2-3-2-5-|-2-3-2-4-2-3-2-5-|-
D|-0-0-0-0-0-0-0-0-|-0-0-0-0-0-0-0-0-|-0-0-0-0-0-0-0-0-|-0-0-0-0-0-0-0-0-|-
A|-----------------|-----------------|-----------------|-----------------|-
E|-----------------|-----------------|-----------------|-----------------|-x2



E|-----------------|-----------------|-----------------|-----------------|-
B|-----------------|-----------------|-----------------|-----------------|-
G|-----------------|-----------------|-----------------|-----------------|-
D|-----------------|-----------------|-----------------|-----------------|-
A|-----7-5-----5-7-|-----7-5-----5-7-|-----7-5-----5-7-|-----7-5-----5-7-|-
E|-0-0-----0-0-----|-0-0-----0-0-----|-0-0-----0-0-----|-0-0-----0-0-----|-x2



E|-------1-------1-|-------1-------1-|-------1-------1-|-------1-------1-|-
B|-----3-------3---|-----3-------3---|-----3-------3---|-----3-------3---|-
G|---2-------2-----|---3-------3-----|---2-------2-----|---3-------3-----|-
D|-0-------0-------|-0-------0-------|-0-------0-------|-0-------0-------|-
A|-----------------|-----------------|-----------------|-----------------|-
E|-----------------|-----------------|-----------------|-----------------|-x4



E|---------0-------|---------0-------|---------0-------|---------0-------|-
B|-------0---0-----|-------0---0-----|-------0---0-----|-------0---0-----|-
G|-----7-------7---|-----7-------7---|-----5-------5---|-----5-------5---|-
D|---9-----------9-|---9-----------9-|---7-----------7-|---7-----------7-|-
A|-0---------------|-8---------------|-0---------------|-6---------------|-
E|-----------------|-----------------|-----------------|-----------------|-repeat and fade out
Guitar Tab Creator is intended to store guitar tab created through the tool. It currently does not support in-line text editing. Any text you place in here will be lost. If you need to comment on your tab, please use the "Tab Notes" section located below.