Allergic to Scissors

(/) Slide Up  (\) Slide Down  (h) Hammer On  (p) Pull Off  (b) Bend (r) Release (v) Vibrato


E|-----------------------------------------------------------------|-
B|-----------------------------------------------------------------|-
G|-----------------------------------------------------------------|-
D|-----------------------------------------------------------------|-
A|-----------------------------------------------------------------|-
E|-0-0-0-0-0-0-0-0-0-0-0-0-0-0-0-0-0-0-0-0-0-0-0-0-0-0-0-0-0-0-0-0-|-



E|--------------------------|--------------------------|--
B|--------------------------|--------------------------|--
G|--------------------------|--------------------------|--
D|--------------------------|--------------------------|--
A|--------7--5--------7--5--|--------7--5--------7--5--|--
E|--0--0--------0--0--------|--0--0--------0--0--------|--



E|--------------------------|--------------------------|--
B|--------------------------|--------------------------|--
G|--------9--7--------9--7--|--------9--7--------9--7--|--
D|--------------------------|--------------------------|--
A|--7--7--------7--7--------|--7--7--------7--7--------|--
E|--------------------------|--------------------------|--



E|-0-------0---|------------|-
B|-0-------0---|------------|-
G|-0-------0---|------------|-
D|-2-------2---|------------|-
A|-2-------2---|------------|-
E|-0-------0---|---------12\|-



E|------------------|------------------|------------------|-----------------|-
B|------------------|------------------|------------------|-----------------|-
G|------------------|------------------|------------------|-----------------|-
D|-2------------5---|-2------------5---|-2------------5---|-8--7--6-5--4--3-|-
A|-2------5-6-7---7-|-2------5-6-7---7-|-2------5-6-7---7-|-8--7--6-5--4--3-|-
E|-0--0-0-0-0-0-----|-0--0-0-0-0-0-----|-0--0-0-0-0-0-----|-6--5--4-3--2--1-|-



E|-
B|-
G|-
D|-
A|-
E|-
http://www.guitartabcreator.com
Guitar Tab Creator is intended to store guitar tab created through the tool. It currently does not support in-line text editing. Any text you place in here will be lost. If you need to comment on your tab, please use the "Tab Notes" section located below.