riff idea #1 better

(/) Slide Up  (\) Slide Down  (h) Hammer On  (p) Pull Off  (b) Bend (r) Release (v) Vibrato


E|--------------------------------------------------------------------------------------
B|--------------------------------------------------------------------------------------
G|--------------------------------------------------------------------------------------
D|--------0-----------0--------2-----------2--------0-----------0--------2-----------2--
A|-----2-----2-----2--------2-----2-----2--------2-----2-----2--------2-----2-----2-----
E|--3-----------3--------0-----------0--------3-----------3--------0-----------0--------



E|--------------------------------------------------------------------------------------
B|--------------------------------------------------------------------------------------
G|--------0-----------0--------2-----------2--------0-----------0--------2-----------2--
D|-----2-----2-----2--------2-----2-----2--------2-----2-----2--------2-----2-----2-----
A|--3-----------3--------0-----------0--------3-----------3--------0-----------0--------
E|--------------------------------------------------------------------------------------
http://www.guitartabcreator.com
Guitar Tab Creator is intended to store guitar tab created through the tool. It currently does not support in-line text editing. Any text you place in here will be lost. If you need to comment on your tab, please use the "Tab Notes" section located below.