New song 1

(/) Slide Up  (\) Slide Down  (h) Hammer On  (p) Pull Off  (b) Bend (r) Release (v) Vibrato

E|------------------------------------------------------------------------------
B|------------------------------------------------------------------------------
G|--------------------------2--4--5--7------5--3--2--2--3--5--3--2--0--2--3--2--
D|-----------4--0--2--4--5------------------------------------------------------
A|--2--4--5---------------------------------------------------------------------
E|------------------------------------------------------------------------------



E|-----------------------------------------------------------------------------------------------
B|-----------------------------------------------------------------------------------------------
G|--2--3--2----2--3--2----2--3--2--0--2----2--3--2----2--3--2--0--2----2--3--2----2--3--2--0--2--
D|-----------------------------------------------------------------------------------------------
A|-----------------------------------------------------------------------------------------------
E|-----------------------------------------------------------------------------------------------



E|-----------0--0--0--0----------------------------
B|-----------6--6--6--6----------------------------
G|--2--3--2----------------------------------------
D|-------------------------------------------------
A|-------------------------------------------------
E|-----------------------0--0--0--0----0--0--0--0--
http://www.guitartabcreator.com
Guitar Tab Creator is intended to store guitar tab created through the tool. It currently does not support in-line text editing. Any text you place in here will be lost. If you need to comment on your tab, please use the "Tab Notes" section located below.