Finger Exercise #1

(/) Slide Up  (\) Slide Down  (h) Hammer On  (p) Pull Off  (b) Bend (r) Release (v) Vibrato


E|--------------------------------------------------------------0--1--2--3--
B|--------------------------------------------------0--1--2--3--------------
G|--------------------------------------0--1--2--3--------------------------
D|--------------------------0--1--2--3--------------------------------------
A|--------------0--1--2--3--------------------------------------------------
E|--0--1--2--3--------------------------------------------------------------



E|-----------------------------------------------------------------------------0--1--2--3--4--
B|--------------------------------------------------------------0--1--2--3--4-----------------
G|-----------------------------------------------0--1--2--3--4--------------------------------
D|--------------------------------0--1--2--3--4-----------------------------------------------
A|-----------------0--1--2--3--4--------------------------------------------------------------
E|--0--1--2--3--4-----------------------------------------------------------------------------
http://www.guitartabcreator.com
Guitar Tab Creator is intended to store guitar tab created through the tool. It currently does not support in-line text editing. Any text you place in here will be lost. If you need to comment on your tab, please use the "Tab Notes" section located below.