Blues Scales - open and 5th fret start

(/) Slide Up  (\) Slide Down  (h) Hammer On  (p) Pull Off  (b) Bend (r) Release (v) Vibrato


E|--------------------------------------0--3--
B|--------------------------------0--3--------
G|-----------------------0--2--3--------------
D|-----------------0--2-----------------------
A|--------0--1--2-----------------------------
E|--0--3--------------------------------------



E|--3--0--------------------------------------
B|--------3--0--------------------------------
G|--------------3--2--0-----------------------
D|-----------------------2--0-----------------
A|-----------------------------2--1--0--------
E|--------------------------------------3--0--



E|--------------------------------------5--8--
B|--------------------------------5--8--------
G|-----------------------5--7--8--------------
D|-----------------5--7-----------------------
A|--------5--6--7-----------------------------
E|--5--8--------------------------------------
http://www.guitartabcreator.com
Guitar Tab Creator is intended to store guitar tab created through the tool. It currently does not support in-line text editing. Any text you place in here will be lost. If you need to comment on your tab, please use the "Tab Notes" section located below.