Blues Improvisation

(/) Slide Up  (\) Slide Down  (h) Hammer On  (p) Pull Off  (b) Bend (r) Release (v) Vibrato
E|--3--3--3--0--0--0--3--0--0--0---------------------------------------------------------
B|--0--0--0--0--3--0--0--0--3--0------3--5--5--5--3--------------------------------------
G|---------------------------------------------------2--4--4--4--2-----------------------
D|------------------------------------------------------------------2--0-----------------
A|------------------------------------------------------------------------2--1--0--------
E|---------------------------------------------------------------------------------3--0--



E|--3b0-----0--0-------------------
B|-------3--------3--0-------------
G|----------------------3--2--0----
D|-------------------------------2b
A|---------------------------------
E|---------------------------------



E|---------------------------------
B|---------------------------------
G|---------------------------------
D|----------------------4-----4\2--
A|-------------------5-----3-------
E|--5/6--5--3--5--3----------------
http://www.guitartabcreator.com
Guitar Tab Creator is intended to store guitar tab created through the tool. It currently does not support in-line text editing. Any text you place in here will be lost. If you need to comment on your tab, please use the "Tab Notes" section located below.