untitled #2 lead guitar

(/) Slide Up  (\) Slide Down  (h) Hammer On  (p) Pull Off  (b) Bend (r) Release (v) Vibrato


E|--------------------------------------
B|--------------------------------------
G|--------------------------------------
D|--------------------------------------
A|-----5--4--0--7--5--4--5--4--0--0-----
E|--0--------------------------------0--



E|-----------------------------------------------------------------------------------------------------------------------------------------------------------
B|-----------------------------------------------------------------------------------------------------------------------------------------------------------
G|-----------------------------------------------------------------------------------------------------------------------------------------------------------
D|-----------------------------------------------------------------------------------------------------------------------------------------------------------
A|--5--4--0--5--4--0--5--4--0--5--4--0--7--5--4--7--5--4--7--5--4--7--5--4--5--4--0--5--4--0--5--4--0--5--4--0--5--4--0--7--5--0--7--5--0--7--5--0--7--5--0--
E|-----------------------------------------------------------------------------------------------------------------------------------------------------------



E|--------------------------------------------------------------------------
B|--------------------------------------------------------------------------
G|--------------------------------------------------------------------------
D|--------------------------------------5--4--2--5--4--2--4--2--0--4--2--0--
A|--5--4--0--5--4--0--7--5--4--7--5--4--------------------------------------
E|--------------------------------------------------------------------------



E|-----------------------------------------------------------------------------------------------------------------
B|-----------------------------------------------------------------------------------------------------------------
G|-----------------------------------------------------------------------------------------------------------------
D|--7--6--4--7--6--4--5--4--2--5--4--2--4--2--0--4--2--0-----------------------------------------------------------
A|--------------------------------------------------------7--5--4--7--5--4--5--4--0--5--4--0--7--5--4--7--5--4-----
E|-----------------------------------------------------------------------------------------------------------------



E|--------------------------------------
B|--------------------------------------
G|--------------------------------------
D|--5--4--2--5--4--2--4--2--0--4--2--0--
A|--------------------------------------
E|--------------------------------------
http://www.guitartabcreator.com
Guitar Tab Creator is intended to store guitar tab created through the tool. It currently does not support in-line text editing. Any text you place in here will be lost. If you need to comment on your tab, please use the "Tab Notes" section located below.